Cifra Club

Vida Loka Parte 1

Racionais MC's

Chords: Principal (acoustic and electric guitars)
tone: B
Intro e Ponte:
Eb|-----------------------------------------------------------------------------
Bb|-----------1--------------0--------------3--------------0--------------1-----
Gb|-----------------------------------------------------------------------------
Db|------2--------------2--------------2--------------2--------------2----------
Ab|-0--------------0--------------0--------------0--------------0---------------
Eb|-----------------------------------------------------------------------------

Eb|-----------------------------------------------------------------------------
Bb|-----------1--------------0--------------3--------------0--------------1-----
Gb|------2--------------2--------------2--------------2--------------2----------
Db|-3--------------3--------------3--------------3--------------3---------------
Ab|-----------------------------------------------------------------------------
Eb|-----------------------------------------------------------------------------


Linha

E|-15----13----12---------------------|--15----13----12------------------
B|----------------------15----13------|-----------------------15---------
G|------------------------------------|----------------------------14----
D|------------------------------------|----------------------------------
A|------------------------------------|----------------------------------
E|------------------------------------|----------------------------------
00:00 / 00:00
Other videos of this song
Repeat
Other videos of this song
Composer not found.
Collaboration and Review:
  • Estevan Soares
135 views
    • ½ Tone
    • A
    • Bb
    • B
    • C
    • Db
    • D
    • Eb
    • E
    • F
    • F#
    • G
    • Ab
  • Add to list
    00:00 / 00:00
    OK