Cifra Club

Vida Loka (parte 2)

Racionais MC's

Cifrado: Principal (guitarra y guitarra eléctrica)
tono: E
[Intro] G#m  D#m

Cordas
E|--------------------------------|
B|--------------------------------|
G|--------------------------------|
D|-----6-4------------------------|
A|----------7-6-------------------|
E|---------------4--44----9-10-11-|

Sopro
E|------4-6-7-9---7-6-4-6-------|
B|--4-5-------------------------|
G|------------------------------|
D|------------------------------|
A|------------------------------|
E|------------------------------|

Cordas
E|------------------------------|
B|------------------------------|
G|------------------------------|
D|-------------4----------------|
A|-------7-6-----6--------------|
E|--7-4-------------------------|

Violoncelo
E|------------------------------|
B|------------------------------|
G|------------------------------|
D|------------------------------|
A|------------------------------|
E|--5-----5-5--------0------0-0-|

Teclas
E|--18-------14-----------------|
B|------16-------16-------------|
G|------------------------------|
D|------------------------------|
A|------------------------------|
E|------------------------------|
00:00 / 00:00
Otros videos de esta canción
Repetir
Otros videos de esta canción
Composición de Mano Brown
Colaboración y revisión:
1.489 vistas
    • ½ Tono
    • A
    • Bb
    • B
    • C
    • Db
    • D
    • Eb
    • E
    • F
    • F#
    • G
    • Ab
  • Agregar a la lista

    0 comentarios

    Ver todos los comentarios

    ¿Lograste tocar?

    27 Tocaron 2 Aún no

    ¡Graba un video tocando Vida Loka (parte 2) y envíanoslo!

    00:00 / 00:00
    OK