Cifra Club

Airbag

Radiohead

Tablatura: Principal (guitarra)
reproducciones 2.324
Tono: E
Intro: ( Fill#1 )Intro: ( Fill#1 )
G|--------------------|-----------------------------------------|---------------------| 
D|-2--3--10-9--11--7--|-2--3--10--9--7--11--14--15--10-9-11--7--|-----2--3--10--9--7--|
A|--------------------|-----------------------------------------|---------------------|
E|-0--1--8--7--9---5--|-0--1--8---7--5--9---12--13--8--7-9---5--|-----0--1--8---7--5--|

Versos:                        Refrão:
   A1    A2    A3    A9         B5+/7  F#m11   E
E|--0--|--0--|--0--|--0--|      |--0--|--0--|--0--|
B|--0--|--0--|--0--|--0--|      |--0--|--0--|--0--|
G|--6--|--8--|--7--|--2--|      |--2--|--2--|--1--|
D|--7--|--7--|--7--|--2--|      |--1--|--4--|--2--|
A|--0--|--0--|--0--|--0--|      |--2--|--4--|--2--|
E|--0--|--0--|--0--|--0--|      |--0--|--0--|--0--|

Intro: ( Fill#1 ) A1

A1               A2
In the next world war 
     A3 
in a jackknifed juggernaut
         A1     
I am born again
             A2     A3
in the neon sign scrolling up and down
            A1  
I am born again

      B5+/7       F#m11      E                  A9
in an intastella burst i am back to save ye universe

Fill#2
E|--13-12-----------|-13-12-----------------|
B|--------15-14-14--|-------15-14-14-14-14--|Este "Fill" aparece também durante a introdução.   
G|------------------|-----------------------|
D|------------------|-----------------------|

E|-------------|-----------------|
B|--6-5--------|--6-5------------|Este "fill" pode substituir ou acompanhar o "fill" acima.
G|------7-6-6--|------7-6-6-6-6--|
D|-------------|-----------------|

(Segunda parte) ( Acompanhada pelo solo descrito abaixo)
A1        A2         A3
in a deep deep sleep of The innocent / completely terrified
           A1
I am born again
             A2
in a fast german car
    A3
im amazed that i survived
          A1    
an airbag saved my life
                                                                               
      B5+/7       F#m11      E                  A9
in an intastella burst i am back to save ye universe

Solo: 2X
G|----------------------------7--8--7--5----|--------------|--------------|
D|-10----9----7----9----6--6-------------6--|--6--5--------|--6--5--------|
A|------------------------------------------|--------7--6--|--------7--6--|
E|------------------------------------------|--------------|--------------|

      B5+/7       F#m11      E                  A9
in an intastella burst i am back to save ye universe

      B5+/7       F#m11      E                  A9
in an intastella burst i am back to save ye universe
                                                                          
Final: ( Fill#1 )
G|--------------------|-----------------------------------------|---------------------| 
D|-2--3--10-9--11--7--|-2--3--10--9--7--11--14--15--10-9-11--7--|-----2--3--10--9--7--|
A|--------------------|-----------------------------------------|---------------------|
E|-0--1--8--7--9---5--|-0--1--8---7--5--9---12--13--8--7-9---5--|-----0--1--8---7--5--|
Acordes para:
    Compositor: Colin Greenwood

    0 comentarios

    mostrar más comentarios

    ¿Conseguiste tocar?

    4 tocaron 0 aún no

    ¡Graba un vídeo tocando Airbag y envianoslo!

    00:00 / 00:00
    outros vídeos desta música
    repetir qualidade Automático
    Outros vídeos desta música
    00:00 / 00:00
    Automático
    OK