Cifra Club

Bangers N Mash

Radiohead

Tablatura: Principal (guitarra)
Tom: C
Tabbed by: Mike V
Email: EdarotagV*

Bangers 'N' Mash - Live from various bootlegs/recordings.
Dont be too hard on me, its not the clearest quality in any of the
versions ive gotten a hold of. but its just a great song i wanted to
play and saw no tabs for it.

Tuning: D A D G B e (for Johnny)

Intro Riff until the verse. just use random mutes.
e|--------------x-x-x----------------------------------|
B|------------x-x-x-x----------------------------------|
G|------------x-x-x-x----------------------------------|
D|-----------xx-x-x-x----------------------------------|
A|-----------------------------------------------------|
D|--5--7--5--7-----------------------------------------|

Verse/First Chorus
Just naturally mute these notes when you stroke up and down. i dont wanna be confusing, 
just improvise the mutes.

"She bit me, bit me..."
e|---------x-x-----------x-x---------------------------|
B|---------x-x-----------x-x---------------------------|
G|---------x-x-----------x-x---------------------------|
D|--7--77--x-------7--77-x-----------------------------|
A|--------7x------------7x-----------------------------|
D|---------x-------------x-----------------------------|

During the choruses, i think Ed starts strumming a D bar chord.

e 5
B 5
G 6
D 7
A 7
E 5

And in parts of the verse, Ed slightly bends these back and forth.

G|--7777777--|

In the 2nd and 3rd chorus, Johnny plays a little solo
e|---5--------8----7h8p7h8p7h8---55--------------------|
B|-----------------------------------------------------|
G|-----------------------------------------------------|

My favorite part of the song. After the silence, Johnny rips!

e|-----------------------------------------------------|
B|-----------------------------------------------------|
G|------7--7---------7--7-------7--7--------7--7-------|
D|-----------------------------------------------------|
A|-----------------------------------------------------|
D|--7~~--------7~7~~-------7~7~~-------7~7~~-----------|

Now this was my first guess at how it the above riff was played, and still
sounds cool, it has more umph, but its 1/2 step lower

e|-----------------------------------------------------|
B|-----------------------------------------------------|
G|------6--6---------6--6-------6--6--------6--6-------|
D|-----------------------------------------------------|
A|-----------------------------------------------------|
D|--0~~--------0~0~~-------0~0~~-------0~0~~-----------|

And there's most of the song. i cant figure out the outro, there's too much
commotion in the band, but im sure there will be better versions once the actual album 
out. Any corrections/ideas please email so we can get this crazy song figured out!
reproducciones 128
Acordes para:

    0 comentarios

    mostrar más comentarios

    ¿Conseguiste tocar?

    0 tocaron 0 aún no

    ¡Graba un vídeo tocando Bangers N Mash y envianoslo!

    00:00 / 00:00
    outros vídeos desta música
    repetir qualidade Automático
    Outros vídeos desta música
    00:00 / 00:00
    Automático
    OK