Cifra Club

Aprenda

Creep

Radiohead

Tablatura: Aula-violao (guitarra)
Tom: G
[Intro] G  B  C  Cm

[Dedilhado]

Parte 1 de 4

   G
E|------------------------------------------|
B|-----------------3---------3--------------|
G|-----------4-------4---4------------------|
D|-----5-------5-------5---5----------------|
A|---5---5-------5--------------------------|
E|-3-------3--------------------------------|

Parte 2 de 4

   B
E|------------------------------------------|
B|------------------------------------------|
G|-----8-----8---9---8---8------------------|
D|---------9---------------9----------------|
A|---9---9-----9---9---9--------------------|
E|-7----------------------------------------|

Parte 3 de 4

   C
E|------------------------------------------|
B|------------------------------------------|
G|------9-------9----10----9----9-----------|
D|-----------10-------------------10--------|
A|---10---10------10----10---10-------------|
E|-8----------------------------------------|

Parte 4 de 4

  Cm
E|------------------------------------------|
B|------------------------------------------|
G|---8-------8------------8-------8---------|
D|-----10------10----10-----10------10------|
A|--------10------10-----------10------10---|
E|-8--------------------8-------------------|

[Primeira Parte]

                      G
When you were here before
                         B
Couldn't look you in the eyes
                    C
You're just like an angel
                     Cm
Your skin makes me cry

                  G
You float like a feather
                B
In a beautiful world
               C
I wish I was special
                    Cm
You're so very special

[Refrão]

            G
But I'm a creep
       B
I'm a weirdo
                          C
What the hell am I doing here?
           Cm
I don't belong here

[Segunda Parte]
                    G
I don't care if it hurts
                  B
I wanna have control
                   C
I wanna a perfect body
                   Cm
I wanna a perfect soul

               G
I want you to notice
               B
When I'm not around
                 C
You're so very special
               Cm
I wish I was special

[Refrão]
            G
But I'm a creep
       B
I'm a weirdo
                          C
What the hell am I doing here?

I don't belong here

  G                    B
She's running out the door
  C
She's running out
     Cm             G   B  C  Cm
She run, run, run, run,   run

[Terceira Parte]

                    G
Whatever makes you happy
              B
Whatever you want
                    C
You're so fucking special
               Cm
I wish I was special

            G
But I'm a creep
       B
I'm a weirdo
                          C
What the hell am I doing here?
           Cm
I don't belong here
           G
I don't belong here
Compositor Albert Hammond / Mike Hazlewood / Radiohead
Colaboración y revision:
  • Leandro Sandim
  • Thiago Almeida
21 reproducciones
  • Simplificar cifra
    • ½ Tom
    • A
    • Bb
    • B
    • C
    • Db
    • D
    • Eb
    • E
    • F
    • F#
    • G
    • Ab
  • Adicionar à lista

    0 comentarios

    Mostrar mais comentários
    00:00 / 00:00
    outros vídeos desta música
    repetir qualidade Automático
    Outros vídeos desta música
    00:00 / 00:00
    Automático
    Capítulos
    • Tocando a Música
    • Apresentação / Equipamentos
    • Acordes da Música
    • Ensinando o Ritmo
    • Dicas Dedilhado
    • Acordes Dedilhado
    • Tocando Dedilhado
    • Ensinando Dedilhado
    • Encerramento
    OK