Cifra Club

Creep

Radiohead

Tab de bajo: Principal
reproducciones 1.650
Introdução

Parte 01

G|--------------------------------------------|
D|--------------------------------------------|
A|------------------------2---2-2---2---2-2---|
E|-3--3-3-3--3-3--3-3-3-3---2-----2---2-----2-|

G|--------------------------------------------|
D|--------------------------------------------|
A|-3---3-3---3---3-3----3---3-3----3-5-x-6----|
E|---3-----3---3------3---3------3---------1--|

Primeira Parte

When you were here before...

Parte 01 de 02

G|--------------------------------------------|
D|--------------------------------------------|
A|------------------------2---2-2---2---2-2---|
E|-3--3-3-3--3-3--3-3-3-3---2-----2---2-----2-|

G|--------------------------------------------|
D|-----------------------------------0-1-3----|
A|-3---3-3---3---3-3----3---3-3----3----------|
E|---3-----3---3------3---3------3------------|

Parte 02 de 02

G|--------------------------------------------|
D|--------------------------------------------|
A|------------------------2---2-2---2---2-2---|
E|-3--3-3-3--3-3--3-3-3-3---2-----2---2-----2-|

G|--------------------------------------------|
D|--------------------------------------------|
A|-3---3-3---3---3-3--3h5-3---3-3---3-5-6-8---|
E|---3-----3---3------------3-----3-----------|

Refrão 

But I'm a creep...

Parte 01 de 01

G|--------------------------------------------|
D|--------------------------------------------|
A|------------------------2---2-2---2---2-2---|
E|-3--3-3-3--3-3--3-3-3-3---2-----2---2-----2-|

G|--------------------------------------------|
D|--------------------------------------------|
A|-3---3-3---3---3-3----3---3-3----3----------|
E|---3-----3---3------3---3------3------------|

Segunda parte 

I want you to notice...

Parte 01 de 02

G|--------------------------------------------|
D|--------------------------------------------|
A|------------------------2---2-2---2---2-2---|
E|-3--3-3-3--3-3--3-3-3-3---2-----2---2-----2-|

G|--------------------------------------------|
D|--------------------------------------------|
A|-3---3-3---3---3-3----3---3-3----3-5-6------|
E|---3-----3---3------3---3------3-------1----|

Parte 02 de 02

G|--------------------------------------------|
D|--------------------------------------------|
A|------------------------2---2-2---2---2-2---|
E|-3--3-3-3--3-3--3-3-3-3---2-----2---2-----2-|

G|--------------------------------------------|
D|--------------------------------------------|
A|-3---3-3---3---3-3--3h5-3---3-3---3-5-6-8---|
E|---3-----3---3------------3-----3-----------|

Refrão 2

But I'm a creep...

Parte 01 de 03

G|--------------------------------------------|
D|--------------------------------------------|
A|------------------------2---2-2---2---2-2---|
E|-3--3-3-3--3-3--3-3-3-3---2-----2---2-----2-|

G|--------------------------------------------|
D|-----------------------------------0-1-3----|
A|-3---3-3---3---3-3----3---3-3----3----------|
E|---3-----3---3------3---3------3------------|

Parte 02 de 03

G|--------------------------------------------|
D|-------------5------------------------------|
A|-----------5---------2---2-2---2------------|
E|-3--3-3-3------3h5-3---2-----2---3h5-3------|

G|--------------------------------------------|
D|-----------------------------------0-1-3----|
A|-3---3-3---3--3h5-3---3---3-3----3----------|
E|---3-----3----------3---3------3------------|

Parte 03 de 03
G|--------------------------------------------|
D|-5---5-5----5/7-5---5-5---------------------|
A|---5------5-------5-----5\--2--2-2-2---2----|
E|-------------------------------------2------|

G|--------------------------------------------|
D|--------------------------------------------|
A|---2-2---5-3---3-3---3---3-3---3---3--------|
E|-2-----2-----3-----3---3-----3--------------|

Terceira parte ( Final )

Whatever makes you happy...

Parte 01 de 02

G|--------------------------------------------|
D|--------------------------------------------|
A|--------2--2-2--3--3-3--3--3-3--------------|
E|-3--3-3-------------------------------------|

G|--------------------------------------------|
D|-----------------------------3/5-5h7--------|
A|--------2--2-2--3--3-3--3-3-----------------|
E|-3--3-3-------------------------------------|
Compositor: Albert Hammond / Mike Hazlewood / Radiohead Colaboración y revision:
  • Reginaldo Costa

0 comentarios

mostrar más comentarios

¿Conseguiste tocar?

5 tocaron 1 aún no

¡Graba un vídeo tocando Creep y envianoslo!

00:00 / 00:00
outros vídeos desta música
repetir qualidade Automático
Outros vídeos desta música
00:00 / 00:00
Automático
Capítulos
  • Tocando a música
  • Apresentação / Equipamentos
  • Dicas Introdução e Primeira Parte
  • Introdução
  • Primeira Parte - Parte 1 de 2
  • Primeira Parte - Parte 2 de 2
  • Dicas Refrão e Segunda Parte
  • Primeiro Refrão
  • Segunda Parte - Parte 1 de 2
  • Segunda Parte - Parte 2 de 2
  • Dicas Segundo Refrão e Terceira Parte
  • Segundo Refrão - Parte 1 de 3
  • Segundo Refrão - Parte 2 de 3
  • Segundo Refrão - Parte 3 de 3
  • Terceira Parte
  • Encerramento
  • Ficha Técnica
OK