Cifra Club

Down Is The New Up

Radiohead

Tablatura: Principal (guitarra)
Tom: D
I managed to tab this from some live footage off youtube. It varies every time but here 
the main parts.

This is from a chicago gig on youtube so it may not be 100% due to sound quality.


  Em         F# E GAug        E F#
E---x---x---x----(0)x-3-x---x-----|
A-7-x-7-x-7-x-----2-x-2-x-2-x-----|
D-5-x-5-x-5-x-4-2-1-x-1-x-1-x-2-4-|
G---x---x---x-------x-0-x---x-----|
B---x---x---x-------x---x---x-----|
e---x---x---x-------x---x---x-----|

Atmospheric with reverse reverb or something similar

 G F#
E----    E--------|  pb=pre-bend r=release bend
A----    A--------|
D---- or D--------|
G----    G--------|
B-8\7    B-8pb9r8
e----    e-------

Chorus
  A           C# A G       F#m
E-5-x-5-x-5-x-9--5-3-x-3-x-2-x-2-2-----|    x2
A-7-x-7-x-7-x-11-7-5-x-5-x-4-x-4-4-----|
D-7-x-7-x-7-x-11-7-5-x-5-x-4-x-4-4-----|
G-4-x-4-x-4-x-10-6-4-x-4-x-2-x-2-2-----|
B-5-x-5-x-5-x-9--5-3-x-3-x-2-x-2-2-----|
e-5-x-5-x-5-x-9--5-3-x-3-x-2-x-2-2-----|

Play this part how you wish i have written it in arpeggio but whatever you want, i think
may just be strumming it.
  Am
E-5-------------------------------|
A-7-------------------------------|
D-7-----7-----7-----7-----7-----7-|
G-5---5-----5-----5-----5-----5---|
B-5-5-----5-----5-----5-----5-----|
e-5-------------------------------|

  Cm
E-8-------------------------------|
A-10------------------------------|
D-10----10----10----10----10---10-|
G-8---8-----8-----8-----8-----8---|
B-8-8-----8-----8-----8-----8-----|
e-8-------------------------------|

  Ebm                     Dm
E-11--------------------------------------------------|
A-13--------------------------------------------------|
D-13-------13-------13----------12--------12-------12-|
G-11----11-------11----------10--------10-------10----|
B-11-11-------11-------11\10-------10--------10-------|
e-11--------------------------------------------------|

Both parts repeat but in Verse 2 Thom plays the Chords on piano.
 i.e Em F#m Em Gaug Em F#m Em

Then on the live versions there is a long coda in which jonny plays the drums in which
bass is playing the same sort of thing as the main riff. On some versions ed O'Brien
with the reverse reverb sound, although it is diffrent everytime and the sound quality
it hard to distinguish what he is playing.

But here is the main bulk
reproducciones 145
Acordes para:

    0 comentarios

    mostrar más comentarios

    ¿Conseguiste tocar?

    0 tocaron 0 aún no

    ¡Graba un vídeo tocando Down Is The New Up y envianoslo!

    00:00 / 00:00
    outros vídeos desta música
    repetir qualidade Automático
    Outros vídeos desta música
    00:00 / 00:00
    Automático
    OK