Cifra Club

Fake Plastic Trees

Radiohead

Tab de bajo: Versão 3
I had to do this song out correctly cuz i love it.

I will also not put a million things in a row when hes playing fast, just
 one symbol to show which note because you can't show rhythm on a tab anyways.

25 seconds into the song the bass comes in:
G:|---------|---------|---------|---------|---------|---------|---------|
D:|---------|---2-4---|----2----|---------|---5-7---|---------|---------|
A:|----0----|---------|---------|--45-----|---------|---45----|---402---|
E:|---------|---------|---------|---------|---------|---------|---------|

G:|---------|---------|---------|---------|---------|---------|---------|
D:|---------|---------|---2-4---|----2----|---------|---------|---------|
A:|---2-0---|----0----|---------|---------|---45----|----0----|----5----|
E:|---------|---------|---------|---------|---------|---------|---------|

G:|---------|---------|---------|---------|---------|---------|---------|
D:|---------|---------|---2-4---|----2----|---------|---------|---------|
A:|---70----|----0----|---------|---------|----45---|----70---|----45---|
E:|---------|---------|---------|---------|---------|---------|---------|

G:|---------|---------|---------|---------|---------|---------|---------|
D:|---------|---------|---------|---------|---------|---------|---------|
A:|---02----|----2----|----20---|----0----|----02---|----0----|----0----|
E:|---------|---------|---------|---------|---------|---------|---------|

G:|---------|---------|---------|---------|---------|---------|---------|
D:|---2-4---|----2----|---------|---------|---------|---------|---------|
A:|---------|---------|----45---|----70---|----45---|----45---|---45----|
E:|---------|---------|---------|---------|---------|---------|---------|

G:|---------|---------|---------|---------|---------|---------|---------|
D:|---------|---------|---2-4---|----2----|---------|---------|---------|
A:|---45-70-|----0----|---------|---------|--45--0--|--45--2--|----2----|
E:|---------|---------|---------|---------|---------|---------|---------|

G:|---------|---------|---------|---------|---------|---------|---------|
D:|---------|---------|---------|---------|---------|---------|---------|
A:|----0----|----2----|----0----|----2----|----0----|----2----|----0----|
E:|---------|---------|---------|---------|---------|---------|---------|

G:|---------|---------|---------|---------|---------|---------|---------|
D:|---------|---------|---------|---------|---------|---------|---------|
A:|-------2-|----2----|---540---|----0----|-------2-|----2----|---540---|
E:|-0-4-----|---------|---------|---------|-0---4---|---------|---------|

G:|---------|
D:|---------|
A:|----0----|
E:|---------|

that should do it.  I think I got it all, some it is hard to hear while
listening, so maybe i didnt, but enjoy!
Composición de Colin Greenwood / Ed O'Brien / Jonny Greenwood / Phil Selway / Thom Yorke
4 vistas

0 comentarios

Ver todos los comentarios

¿Lograste tocar?

0 Tocaron 0 Aún no

¡Graba un video tocando Fake Plastic Trees y envíanoslo!

00:00 / 00:00
Otros videos de esta canción
Repetir Calidad Automático
Otros videos de esta canción
00:00 / 00:00
Automático
OK