Cifra Club

Fog Again Intro

Radiohead

Tablatura: Principal (guitarra)
Tom: D
Fog (Again)[Live]
Go To Sleep Single [CD1]
Standard Tuning (EADGBe)

This is my interpretation of Fog as it appears on the Go To Sleep Single [CD1].  The
I transcribed this from is the one with Thom playing solo piano, so I tried to mimic the
that it is played in.  That being said, it works best finger picked.  I only tabbed the 
because the chords and style remain more or less constant throughout the entire song.
The only real variation is at the end where Thom starts singing "Did you go bad?" etc.  
the chords alternate between G and A.  The song then finishes with the first 2 bars of 
intro and resolves on the A.  If you can play this then the rest should be really easy.  Enjoy!


  D                         Bm
e-|2---2---2---2---0-------|2---2---2---2---0-------|
B-|3-------------------3---|3-------------------3---|
G-|2-----------------------|4-----------------------|
D-|0-0---0---0---0---------|------------------------|
A-|------------------------|2-2---2---2---2---------|
E-|------------------------|------------------------|

   A                        A
e-|------------------------|------------------------|
B-|2---2---2---2---0---3---|2---2---2---2---0-------|
G-|2-----------------------|2-------------------2---|
D-|2-----------------------|2-----------------------|
A-|0-0---0---0---0---------|0-0---0---0---0---------|
E-|------------------------|------------------------|

   G                        Gm
e-|------------------------|------------------------|
B-|0---0---0---0-----------|------------------------|
G-|0---------------2---0---|3---3---3---------------|
D-|0-----------------------|5----------/7---5-------|
A-|------------------------|5-----------------------|
E-|3-3---3---3-------------|3-3---3---3-------------|

   D                        Bm
e-|------------------------|------------------------|
B-|------------------------|------------2---3-------|
G-|2-----------------------|4---4---4---------------|
D-|4---4---4---5---7-------|4-----------------------|
A-|5-5---5---5-------------|2-2---2---2-------------|
E-|------------------------|------------------------|

   A                        A
e-|------------------------|------------------------|
B-|2---2---2---2---0---3---|2---2---2---2-------0---|
G-|2-----------------------|2---------------2-------|
D-|2-----------------------|2-----------------------|
A-|0-0---0---0---0---------|0-0---0---0---0---------|
E-|------------------------|------------------------|

   A                        A
e-|----------------0-------|2---0---0---0-----------|
B-|2---2---2---3-----------|----------------3---2---|
G-|2-----------------------|------------------------|
D-|2-----------------------|------------------------|
A-|0-0---0---0---0---0-0-0-|--0---0---0---0---------|
E-|------------------------|------------------------|


That's that.  I hope I'm not the only on that thinks this sounds pretty good.  I like
Single [CD1].  I'm also working on a guitar tab for the piano version of Like Spinning 
from I Might Be Wrong (which, in my opinion, also is far superior to the album
which appears on Amnesiac).  Any feedback would be greatly appreciated.
reproducciones 37
Acordes para:

    0 comentarios

    mostrar más comentarios

    ¿Conseguiste tocar?

    0 tocaron 0 aún no

    ¡Graba un vídeo tocando Fog Again Intro y envianoslo!

    00:00 / 00:00
    outros vídeos desta música
    repetir qualidade Automático
    Outros vídeos desta música
    00:00 / 00:00
    Automático
    OK