Cifra Club

Give Up The Ghost

Radiohead

Tablatura: Principal (guitarra)
Tom: G
D
Don't hurt me
Am
Don't hurt me

D                          Am
Gather up the lust in your soul
          D               Am
Into your arms, into your arms
D                 Am
Gather up the painful
          D               Am
Into your arms, into your arms
D                 Am
What seems impossible
          D               Am
Into your arms, into your arms
D                     Am
I think I have had my fill
          D               Am
Into your arms, into your arms
          D               Am
Into your arms, into your arms

Bm                           Fmaj7   Cmaj7
I think I should give up the ghost
          D               Am
Into your arms, into your arms
          D               Am
Into your arms, into your arms
          D               Am
Into your arms, into your arms
          D               Am
Into your arms, into your arms
Verso:
(Guitarra 1)
    D                     Am7
E|-x---2------0-----5----x-----0-----3-----0------|
B|-x---3------3-----3----x-----1-----3-----3------|
G|-x---2------2-----2----x-----0-----0-----0------|
D|------------------------------------------------|
A|-----------------------0------------------------|
D|(0)---------------------------------------------|

    D                     Am7
E|-x---2------0-----5----x-----0-----3-----0------|
B|-x---3------3-----3----x-----1-----1-----1------|
G|-x---2------2-----2----x-----0-----0-----0------|
D|------------------------------------------------|
A|-----------------------0------------------------|
D|(0)---------------------------------------------|

(Guitarra 2)
    D
E|------------------------------------------------------------------|
B|------------------------------------------------------------------|
G|---------------7---------------7---------------7------------------|
D|-----------7---------------7---------------7---------------7------|
A|---------5---5-------5---5---5-------5---5---5-------5---5---5----|
E|------------------------------------------------------------------|

    Am
E|------------------------------------------------------------------|
B|------------------------------------------------------------------|
G|---------------5---------------5---------------5------------------|
D|-----------7---------------7---------------7---------------7---7--|
A|-7---7---7---7-------7---7---7-------7---7---7-------7---7---7----|
E|------------------------------------------------------------------|

E|------------|
B|------------|
G|-------0----|
D|---7--------|
A|-7---7------|
C|------------|

(Guitarra 3)
    D
E|----------------------------------------------------------------|
B|----------------------------------------------------------------|
G|----------------------------------------------------------------|
D|-------4---4---4------4---4---4------4---4---4------4---4---4---|
A|---------0---0---0------0---0---0------0---0---0------0---0---0-|
E|----------------------------------------------------------------|

    Am
E|------------------------------------------------------------------|
B|------------------------------------------------------------------|
G|------------------------------------------------------------------|
D|-------10--10--10-----10--10--10-----10--10--10-----10--10--10----|
A|---------0---0---0------0---0---0------0---0---0------0---0---0---|
E|------------------------------------------------------------------|

    D
E|----------------------------------------------------------------|
B|----------------------------------------------------------------|
G|----------------------------------------------------------------|
D|-------4---4---4------4---4---4------4---4---4------4---4---4---|
A|---------0---0---0------0---0---0------0---0---0------0---0---0-|
E|----------------------------------------------------------------|

    Am
E|------------------------------------------------------------------|
B|------------------------------------------------------------------|
G|------------------------------------------------------------------|
D|-------10--10--10-----10--10--10-----10--10--10-----10--10--10----|
A|---------0---0---0------0---0---0------0---0---0------0---0---0---|
E|------------------------------------------------------------------|

    D
E|----------------------------------------------------------------|
B|----------------------------------------------------------------|
G|----------------------------------------------------------------|
D|-------4---4---4------4---4---4------4---4---4------4---4---4---|
A|---------0---0---0------0---0---0------0---0---0------0---0---0-|
E|----------------------------------------------------------------|

    Am
E|------------------------------------------------------------------|
B|------------------------------------------------------------------|
G|------------------------------------------------------------------|
D|-------10--10--10-----10--10--10-----10--7---7------7---7---7-----|
A|---------0---0---0------0---0---0------0---0---0------0---0---0---|
E|------------------------------------------------------------------|

    D
E|----------------------------------------------------------------|
B|----------------------------------------------------------------|
G|----------------------------------------------------------------|
D|-------7---7---7------7---7---7------7---7---7------7---7---7---|
A|---------0---0---0------0---0---0------0---0---0------0---0---0-|
E|----------------------------------------------------------------|

    Am
E|----------------------------------------------------------------|
B|----------------------------------------------------------------|
G|----------------------------------------------------------------|
D|----------------------------------------------------------------|
A|-------3---3---3------3---3---3------3---3---3------3---3---3---|
E|---------5---5---5------5---5---5------5---5---5------5---5---5-|

    D
E|------------------------------------------------------------------|
B|------------------------------------------------------------------|
G|---------------7---------------7---------------7------------------|
D|-----------7---------------7---------------7---------------5---7--|
A|-----5---5---5-------5---5---5-------5---5---5-------5---5---5----|
E|------------------------------------------------------------------|

    Am
E|------------------------------------------------------------------|
B|------------------------------------------------------------------|
G|---------------5---------------5---------------5------------------|
D|-----------7---------------7---------------7---------------5---7--|
A|-7---7---7---7-------7---7---7-------7---7---7-------7---7---7----|
E|------------------------------------------------------------------|

    D
E|----------------------------------------------------------------|
B|----------------------------------------------------------------|
G|----------------------------------------------------------------|
D|-------7---7---7------7---7---7------7---7---7------7---7---7---|
A|---------0---0---0------0---0---0------0---0---0------0---0---0-|
E|----------------------------------------------------------------|

    Am
E|----------------------------------------------------------------|
B|----------------------------------------------------------------|
G|----------------------------------------------------------------|
D|---7---7---7---7------7---7---7------7---7---7------7---7---7---|
A|-----0---0---0---0------0---0---0------0---0---0------0---0---0-|
E|----------------------------------------------------------------|

    D
E|----------------------------------------------------------------|
B|----------------------------------------------------------------|
G|----------------------------------------------------------------|
D|-------7---7---7------7---7---7------7---7---7------7---7---7---|
A|---------0---0---0------0---0---0------0---0---0------0---0---0-|
E|----------------------------------------------------------------|

    Am
E|----------------------------------------------------------------|
B|----------------------------------------------------------------|
G|----------------------------------------------------------------|
D|-------7---7---5-7----7---7---5-7----7---7---5-7----7---7---5-7-|
A|---------0---0----------0---0----------0---0----------0---0-----|
E|----------------------------------------------------------------|

    D
E|----------------------------------------------------------------|
B|----------------------------------------------------------------|
G|----------------------------------------------------------------|
D|-------7---7---5-7----7---7---5-7----7---7---5-7----7---7---5-7-|
A|---------0---0----------0---0----------0---0----------0---0-----|
E|----------------------------------------------------------------|

    Am
E|----------------------------------------------------------------|
B|----------------------------------------------------------------|
G|----------------------------------------------------------------|
D|-------10--10--10-----10--10--10-----10--10--10---9---9---9---7-|
A|---------0---0---0------0---0---0------0---0---0----0---0---0---|
E|----------------------------------------------------------------|

Refrão:
(Guitarra 1)
    Bm7                 Fmaj7     C
E|------2----0----3--------0----------0------------|
B|------3----3----3--------1----------1------------|
G|------2----2----2--------2----------0------------|
D|-------------------------3-----------------------|
A|-2-----------------------------3-----------------|
D|---------------------3---------------------------|

(Guitarra 2)
    Bm
E|------------------------------------------------------------------|
B|------------------------------------------------------------------|
G|-7-------------7---------------7---------------7------------------|
D|-----------9---------------9---------------9----------------------|
A|-----9---9---9-------9---9---9-------9---9---9-------9---9--------|
E|------------------------------------------------------------------|

    Fmaj7                             Cmaj7
E|------------------------------------------------------------------|
B|-10----------------10--------------5------------------5---5-------|
G|-----9-----------------9---------------4----------------------4---|
D|--------10------10--------10-\-------------5--------5-------------|
A|--------------8-----------------------------------3---------------|
E|------------------------------------------------------------------|

(Guitarra 3)
    Bm
E|------------------------------------------------------------------|
B|------------------------------------------------------------------|
G|-7-------------7---------------7---------------7------------------|
D|-----------9---------------9---------------9----------------------|
A|-----9---9---9-------9---9---9-------9---9---9-------9---9--------|
E|------------------------------------------------------------------|

    Fmaj7                             Cmaj7
E|-----------------------------------7-------------------7------------|
B|-10----------------10------------------5-------------------5--------|
G|-----9-----------------9-------------------5--------5-----------5---|
D|--------10------10--------10-\--------------------5-----------------|
A|--------------8-----------------------------------------------------|
E|--------------------------------------------------------------------|

(Verso)

(Guitarra 3)
    D
E|------------------------------------------------------------------|
B|------------------------------------------------------------------|
G|------------------------------------------------------------------|
D|------------------------------------------------------------------|
A|-----5---5---5------5---5---5------5---5---5------5---5---5-------|
E|-------5---5---5------5---5---5------5---5---5------5---5---5-----|

    Am
E|----------------------------------------------------------------|
B|----------------------------------------------------------------|
G|----------------------------------------------------------------|
D|----------------------------------------------------------------|
A|-------3---3---3------3---3---3------3---3---3------3---3---3---|
E|---------5---5---5------5---5---5------5---5---5------5---5---5-|

    D
E|----------------------------------------------------------------|
B|----------------------------------------------------------------|
G|----------------------------------------------------------------|
D|-------4---4---4------4---4---4------4---4---4------4---4---4---|
A|---------0---0---0------0---0---0------0---0---0------0---0---0-|
E|----------------------------------------------------------------|

    Am
E|----------------------------------------------------------------|
B|----------------------------------------------------------------|
G|----------------------------------------------------------------|
D|----------------------------------------------------------------|
A|-------3---3---3------3---3---3------3---3---3------3---3---3---|
E|---------5---5---5------5---5---5------5---5---5------5---5---5-|

    D
E|----------------------------------------------------------------|
B|----------------------------------------------------------------|
G|----------------------------------------------------------------|
D|-------4---4---4------4---4---4------4---4---4------4---4---4---|
A|---------0---0---0------0---0---0------0---0---0------0---0---0-|
E|----------------------------------------------------------------|

    Am
E|----------------------------------------------------------------|
B|----------------------------------------------------------------|
G|----------------------------------------------------------------|
D|----------------------------------------------------------------|
A|-------3---3---3------3---3---3------3---3---3------3---3---3---|
E|---------5---5---5------5---5---5------5---5---5------5---5---5-|

    D
E|------------------------------------------------------------------|
B|------------------------------------------------------------------|
G|------------------------------------------------------------------|
D|------------------------------------------------------------------|
A|-----5---5---5------5---5---5------5---5---5------5---5---5-------|
E|-------5---5---5------5---5---5------5---5---5------5---5---5-----|

    Am
E|----------------------------------------------------------------|
B|----------------------------------------------------------------|
G|----------------------------------------------------------------|
D|----------------------------------------------------------------|
A|-------3---3---3------3---3---3------3---3---3------3---3---3---|
E|---------5---5---5------5---5---5------5---5---5------5---5---5-|

    D
E|------------------------------------------------------------------|
B|------------------------------------------------------------------|
G|------------------------------------------------------------------|
D|------------------------------------------------------------------|
A|-----5---5---5------5---5---5------5---5---5------5---5---5-------|
E|-------5---5---5------5---5---5------5---5---5------5---5---5-----|

    Am
E|----------------------------------------------------------------|
B|----------------------------------------------------------------|
G|----------------------------------------------------------------|
D|----------------------------------------------------------------|
A|-------3---3---3------3---3---3------7---7---7------7---7---7---|
E|---------5---5---5------5---5---5------5---5---5------5---5---5-|

    D
E|------------------------------------------------------------------|
B|------------------------------------------------------------------|
G|------------------------------------------------------------------|
D|------------------------------------------------------------------|
A|-----5---5---5------5---5---5------5---5---5------5---5---5-------|
E|-------5---5---5------5---5---5------5---5---5------5---5---5-----|

    Am
E|------------------------------------------------------------------|
B|------------------------------------------------------------------|
G|------------------------------------------------------------------|
D|------------------------------------------------------------------|
A|---------5------5------5-------5-------5--------5-------5-------5-|
E|-------5------5------5------5------5---------5-------5-------5----|
reproducciones 787
Acordes para:
    Composição: Radiohead Colaboración y revision:
    • Gustavo

    0 comentarios

    mostrar más comentarios

    ¿Conseguiste tocar?

    1 tocaron 0 aún no

    ¡Graba un vídeo tocando Give Up The Ghost y envianoslo!

    00:00 / 00:00
    outros vídeos desta música
    repetir qualidade Automático
    Outros vídeos desta música
    00:00 / 00:00
    Automático
    OK