Cifra Club

High And Dry Solo

Radiohead

Cifrado: Principal (guitarra y guitarra eléctrica)
tono: E
HIGH AND DRY
RADIOHEAD

SOLO

E|---------------------------------------------------------------------
B|---------------------------------------------------------------------
G|---------------------------------------------------------------------
D|------------9-9-9----9---------------7-7-7-7-777---------------------
A|11-11-11-11-------------11-11-11-11----------------------------------
E|-------------------------------------------------X-------------------

E|---------------------------------------------------------------------
B|---------------------------------------------------------------------
G|---------------------------------------------------------------------
D|---------------------------------------------------------------------
A|-7---7---7---7---777-------7---7---7---- 11-11-11-11-----------------
E|-----------------------x---------------------------------------------

E|---------------------------------------------------------------------
B|---------------------------------------------------------------------
G|---------------------------------------------------------------------
D|---------------------------------------------------------------------
A|--7-7--7--7--7--------11-11-11-11----7--7---7---7---7777-------------
E|---------------------------------------------------------------------

E|---------------------------------------------------------------------
B|---------------------------------------------------------------------
G|---------------------------------------------------------------------
D|---------------------------------------------------------------------
A|-7--7---7---7777------7---7---7--------------------------------------
E|------------------x--------------------------------------------------

E|---------------------------------------------------------------------
B|-------------------------------------------------9--------------------
G|---------------------------------------------------------------------
D|---------------------------------------------------------------------
A|---------------------------------------------------------------------
E|---------------------------------------------------------------------

E|---------------------------------------------------------------------
B|----------------------------9-----------------------------------------
G|---------------------------------------------------------------------
D|---------------------------------------------------------------------
A|---------------------------------------------------------------------
E|---------------------------------------------------------------------

E|---------------------------------------------------------------------
B|-----------------------------10--------------------------------------
G|---------------------------------------------------------------------
D|---------------------------------------------------------------------
A|---------------------------------------------------------------------
E|---------------------------------------------------------------------

E|---------------------------------------------------------------------
B|---------------------------12----------------------------------------
G|---------------------------------------------------------------------
D|---------------------------------------------------------------------
A|---------------------------------------------------------------------
E|---------------------------------------------------------------------

E|---------------------------------------------------------------------
B|---------------------------------------------------------------------
G|---------------------------------------------------------------------
D|---------------------------------------------------------------------
A|--------------------------------x-x-x-x-x-x-x-x-x--------------------
E|---2--2--2--2--2--2--2-2--2------------------------------------------

E|---------------------------------------------------------------------
B|---------------------------------------------------------------------
G|---------------------------------------------------------------------
D|---------------------------------------------------------------------
A|---------------------------------------------------------------------
E|--x-x-x-x-x-x-x-x-x-x-x-x-x-x-x-x-x----------------------------------

E|---------------------------------------------------------------------
B|---------------------------------------------------------------------
G|---------------------------------------------------------------------
D|---------------------------------------------------------------------
A|-------------------x-------------------------------------------------
E|-2-2-2-2-2-2-2-2-2---------------------------------------------------

E|---------------------------------------------------------------------
B|---------------------------------------------------------------------
G|---------------------------------------------------------------------
D|---------------------------------------------------------------------
A|---------------------------------------------------------------------
E|---X~~~~~~~~~~~~-----------------------------------------------------

E|---------------------------------------------------------------------
B|---------------------------------------------------------------------
G|---------------------------------------------------------------------
D|---------------------------------------------------------------------
A|--11-11-11-11-----9-9-9--9---9-----11-11-11-11-----------------------
E|---------------------------------------------------------------------

E|---------------------------------------------------------------------
B|---------------------------------------------------------------------
G|---------------------------------------------------------------------
D|---------------------------------------------------------------------
A|--7--7--7--7----7777--------7---7---7-----7777-------7-7-7-7---------
E|-------------------------------------------------x-------------------

E|---------------------------------------------------------------------
B|-----------5--------4------------------------------------------------
G|-----------------------------6-------4-------------------------------
D|------------------------------------------6--------------------------
A|---------------------------------------------------------------------
E|---------------------------------------------------------------------

E|-------------4-------------4----x------------------------------------
B|-------------------------------------------5----7~~~~~~~~~~----------
G|--2~3~4----4----2---1-----4---2------1-------------------------------
D|---------------------------------------------------------------------
A|---------------------------------------------------------------------
E|---------------------------------------------------------------------

E|---------------------------------------------------------------------
B|--7~~~~7~~~~7~~~~~~--5-----------------------------------------------
G|---------------------------------------------------------------------
D|---------------------------------------------------------------------
A|---------------------------------------------------------------------
E|--------------------------2-2-2-2-2-2-2-2----------------------------

E|---------------------------------------------------------------------
B|---------------------------------------------------------------------
G|---------------------------------------------------------------------
D|---------------------------------------------------------------------
A|--x-x-x-x-x-x-x-x-x--------------------------------------------------
E|---------------------x-x-x-x-x-x-x-x-x-x-x-x-x-x-x-x-x---------------

E|---------------------------------------------------------------------
B|---------------------------------------------------------------------
G|---------------------------------------------------------------------
D|---------------------------------------------------------------------
A|------------------x-x-x-x-x-x-x-x------------------------------------
E|-2-2-2-2-2-2-2-2------------------x-x-x-x-x-x-x-x-x------------------

E|---------------------------------------------------------------------
B|--5-5--4--5----5--4---5---5--4--5---7--5--4--5--5--5--4--5---5-------
G|---------------------------------------------------------------------
D|---------------------------------------------------------------------
A|---------------------------------------------------------------------
E|---------------------------------------------------------------------

E|---------------------------------------------------------------------
B|---------------------4---4-5--5-4--5--5--5-4--5--5-4---5--7--5-5-4---
G|--6--4-----4---6-----------------------------------------------------
D|---------------------------------------------------------------------
A|---------------------------------------------------------------------
E|---------------------------------------------------------------------

E|-------------------------------------------12------------------------
B|--5--5------------------------------------12-----------------------2-
G|-----------6---4~~~~~~~~~~~~~~~~~~~~~~-------------------------------
D|-----------------------------------------------------------2---------
A|---------------------------------------------------------------------
E|---------------------------------------------------------------------

E|---------------------------------------------------------------------
B|-------------5-5--4--5-5-5-4--5-5-5-4---5--7----4--5-5--4-5----------
G|-----1---------------------------------------------------------------
D|---------------------------------------------------------------------
A|---------------------------------------------------------------------
E|---------------------------------------------------------------------

E|--------------------x------------------------------------------------
B|---------------------------5-5--4--5-5-5-4---5-5-5-4---5-5-5-4-------
G|--6---4---2----1--1----1---------------------------------------------
D|---------------------------------------------------------------------
A|---------------------------------------------------------------------
E|---------------------------------------------------------------------

E|---------------------------------------------------------------------
B|--5---5--4----5-5-5-4-----5-5-5-5-5-----7-7----9-9----10-10--9-10-9--
G|---------------------------------------------------------------------
D|---------------------------------------------------------------------
A|---------------------------------------------------------------------
E|---------------------------------------------------------------------

E|---------------12----------------------12----11----------------------
B|-------10---10-----10-9--------------9----------9--------------------
G|-11---9--------------------11--9--11-------11-------11--11-----------
D|---------------------------------------------------------------------
A|---------------------------------------------------------------------
E|---------------------------------------------------------------------

E|----------------------------------------------------------------------
B|-------------------------9------9-10-10--9-10-9----------------------9
G|--9----9---11----9--11------------------------------------------------
D|-------------------------------------------------11---9---------------
A|---------------------------------------------------------12--12~~~~~~-
E|----------------------------------------------------------------------


~: VIBRATO
X: OPEN NOTE.
Compositor não encontrado.
Colaboración y revisión:
  • Eduardo Teles
  • Paulo Deléo
975 vistas
    • ½ Tono
    • A
    • Bb
    • B
    • C
    • Db
    • D
    • Eb
    • E
    • F
    • F#
    • G
    • Ab
  • Agregar a la lista

    0 comentarios

    Ver todos los comentarios

    ¿Lograste tocar?

    0 Tocaron 0 Aún no

    ¡Graba un video tocando High And Dry Solo y envíanoslo!

    00:00 / 00:00
    Outros vídeos desta música
    Repetir Calidad Automático
    Outros vídeos desta música
    00:00 / 00:00
    Automático
    OK