Cifra Club

How Do You?

Radiohead

Cifrado: Principal (guitarra y guitarra eléctrica)
tono: G
-----0-----   -----0-----   -----0-----   -----4----
-----0-----   -----2-----   -----0-----   -----5----
-----0-----   -----2-----   -----1-----   -----4----
-----2-----   -----2-----   -----2-----   -----6----
-----2-----   -----0-----   -----2-----   -----7----
-----x-----   -----0-----   -----0-----   -----4----
   Asus2           A          E(tipo1)     E(tipo2) 


-----3-----   -----3-----   -----X-----   -----0----
-----3-----   -----3-----   -----X-----   -----0----
-----0-----   -----2-----   -----X-----   -----0----
-----0-----   -----0-----   -----2-----   -----0----
-----2-----   -----X-----   -----0-----   -----0----
-----3-----   -----X-----   -----X-----   -----0----
     G           Dsus4           A5           F#m



Asus2    A    A    Asus2    A    Asus2          
                
                                             
 Asus2/A                         E(tipo1)           
He's bitter and twisted, he knows what he wants
                  F#m              E(tipo1)E(tipo2) 
He wants to be loved and he wants to belong
               Asus2/A               E (tipo1)
He wants us to listen, he wants us to weep
           F#m                          
He was a stupid baby who turned into a powerful
E (tipo2)
freak
            
            G
But how do you?
       Dsus4    A5
How do you?
      Asus2/A
How do you?
                  
                  
                  Asus2/A                 E (tipo1)
He lives with his mother, but we show him respect
                  F#m             E(tipo2)E(tipo1)
He's a dangerous bigot, but we always forget
                       Asus2/A
And he's just like his daddy
                         E (tipo1)
Because he cheats on his friends
                       F#m
And he steals and he bullies
              E (tipo2)
Anyway that he can


            G
But how do you?
       Dsus4    A5
How do you?
      Asus2/A
How do you?
Composición de Colin Greenwood / Ed O'Brien / Jon Greenwood / Phil Selway / Thom Yorke
256 vistas
    • ½ Tono
    • A
    • Bb
    • B
    • C
    • Db
    • D
    • Eb
    • E
    • F
    • F#
    • G
    • Ab
  • Agregar a la lista

    0 comentarios

    Ver todos los comentarios

    ¿Lograste tocar?

    0 Tocaron 0 Aún no

    ¡Graba un video tocando How Do You? y envíanoslo!

    00:00 / 00:00
    Outros vídeos desta música
    Repetir Calidad Automático
    Outros vídeos desta música
    00:00 / 00:00
    Automático
    OK