Cifra Club

I might be wrong

Radiohead

Tablatura: Principal (guitarra)
Tom: D
E|---------------------------------------------------------------
B|---------------------------------------------------------------
G|---------------------------------------------------------------
D|------------0-------------0-------------0---------------0------            repeat several times
A|---------------------------------------------------------------
D|-----0-------------/5-------------/3-------------3-------------

E|---------------------------------------------------------------
B|---------------------------------------------------------------
G|---------------------------------------------------------------
D|-------------0-------------0-------------0--------------0------
A|---------------------------------------------------------------
D|-----5--------------/8-------------/5-------------5------------

E|---------------------------------------------------------------
B|---------------------------------------------------------------
G|---------------------------------------------------------------
D|-------------0-------------0-------------0--------------0------
A|---------------------------------------------------------------
D|-----3--------------/5-------------/3-------------3------------

That's all I can figure out for now, but this is my first ever tab so cut me some slack.
Sorry I couldn't figure out anymore.

reproducciones 1.000
Acordes para:

    0 comentarios

    mostrar más comentarios

    ¿Conseguiste tocar?

    0 tocaron 0 aún no

    ¡Graba un vídeo tocando I might be wrong y envianoslo!

    00:00 / 00:00
    outros vídeos desta música
    repetir qualidade Automático
    Outros vídeos desta música
    00:00 / 00:00
    Automático
    OK