Cifra Club

Just

Radiohead

Tablatura: Principal (guitarra)
reproducciones 8.227
Tono: C
[Intro:] C D# D F

Am                     G#
Can't get the stink off
                             D# F Am
He's been hanging round for days
                  G#
Comes like a comet
                             D# Bb Am
Suckered you but not your friends
                        G#
One day he'll get to you
                           G F# F
And teach you how to be a holy cow

                  C         F#
You do it to yourself, you do
      F
And that's what really hurts
                          C
Is that you do it to yourself
      F#      F
Just you and no-one else
                  C D# D F
You do it to yourself
                  C D# D F
You do it to yourself

Don't get my sympathy
Hanging out the 15th floor
You've changed the locks three times
He still comes reeling through the door
One day I'll get you
And teach you how to get to purest hell

Solo: E D C#m
E|------------------------------------------------------------------------------
B|------------------------------------------------------------------------------
G|----5--7-7/----5-------5--7--7/-----5----4------5------8/---------------------
D|--7----------7------6------------6---------5------4---------------------------
A|---------------------------------------------5------4-------------------------
E|------------------------------------------------------------------------------

E|------------------------------------------------------------------------------
B|--12-11-10--------------------------------------------------------------------
G|-----------12/--11-10-------10-12-10--10-12-10------- x2 --- Chorus ----------
D|----------------------10h12---------------------------------------------------
A|------------------------------------------------------------------------------
E|------------------------------------------------------------------------------


e|--8---10-11---13-14---16-17-----8---10-11---13-14---16-17----20-(3bars)--17--
B|------------------------------------------------------------------------------
G|--5---7--8----10-11---13-14-----5---7--8----10-11---13-14---------------------
D|------------------------------------------------------------------------------
A|------------------------------------------------------------------------------
E|------------------------------------------------------------------------------

Riff 3---------------------------------------------------------]
e|------------------------------------------8/p6-------------------------------
B|----------------------------------------8--------8/p6--7-5-------------------
G|-8p5------5-8p5-----5-8p5-----5-8p5-------------------------7-----------------
D|-----8-/--------8/--------8/--------8/----------------------------------------
A|------------------------------------------------------------------------------
E|------------------------------------------------------------------------------

.5-----------------]
E|------------------------------------------------------------------------------
B|---------------------------------------6/-6-6-6-6-6-6-6-6-6-------------------
G|--8p5-----5-8p5-----5-8p5-----5-8p5------------------------------ Riff 3------
D|------8/--------8/--------8/--------8/----------------------------------------
A|------------------------------------------------------------------------------
E|------------------------------------------------------------------------------

E|------------------------------------------------------------------------------
B|------------------------------------------------------------------------------
G|--8p5------8p5-----5--8p5-----------------------------------------------------
D|------8/-------8/---------8/---sl.-------------------------------------------
A|------------------------------------------------------------------------------
E|------------------------------------x-----------------------------------------
Acordes para:

    0 comentarios

    mostrar más comentarios

    ¿Conseguiste tocar?

    10 tocaron 0 aún no

    ¡Graba un vídeo tocando Just y envianoslo!

    00:00 / 00:00
    outros vídeos desta música
    repetir qualidade Automático
    Outros vídeos desta música
    00:00 / 00:00
    Automático
    OK