Cifra Club

Aprenda

Karma Police

Radiohead

Tab de bajo: Versão 3
Tabbed By : Daniel
e-mail: *

Tuning: standard

verse
G|------------------------------------------------------------------|
D|------------------------------------------------------------------|
A|-0---------------0----------------------3-2-0--0-0--2--7-5--------|
E|----2-2--0--2h3-----1-1--0-2h3--5/10\3----------------------------| x2

Chorus 1
G|----------5-7------5-7----4---------------------------------------|
D|-----5-54-----5-54-----5-5----------------------------------------|
A|-3~-------------------------3--3-3--2--7-5------------------------|
E|-(hold for 2 beats)-----------------------------------------------| 

Repeat verse

Chorus 2
G|----------5-7------5-7----4---------------------------------------|
D|-----5-54-----5-54-----5-5---------------------------0------------|
A|-3~-------------------------3--2--0-------------------------------|
E|-(hold for 2 beats)------------------3-2-2-0--0-0-023-------------| 

coda
G|------------------------------------------------------------------|
D|------------------------------------------------------------------|
A|-2-2--2-5-5-----4-5-------5-5--5-7----7-5-7-9\--------------------|
E|-------------3-------2-3-----------0------------------------------| 

G|------------------------------------------------------------------|
D|------------------------------------------------------------------|
A|-2---5--------2-5-5----------7-7--7--7-7--57-7-7------------------|
E|--------5-3-5-------0-2-3-3---------------------------------------| 

G|---------------------4---------------4-7--------------------------|
D|-------------4---5-7---5-----4-7-5-7---------4-7------------------|
A|-2-4-5-2-5-7---5---------5-7-------------5-7---------7---7h9-9\---|
E|-------------------------------------------------0-0---0----------| 

G|------------------------------------------------------------------|
D|------------------------------------------------------------------|
A|-2-2--2-5-------5-----5--7----7-5-7-7575--------------------------|
E|-----------3--3----3-------0--------------------------------------| 

G|------------------------------------------------------------------|
D|------------------------4----------4------------------------------|
A|-2-2--2-5-----------5-7---5----5-7---5-7-7--7-57-7----------------|
E|-----------2-3-3--3---------3----------------------0--------------| 

G|------------------------------------------------------------------|
D|-------------4---------------4---------------4--------------------|
A|-2-4-5-2-5-7---5-----2---5-7---5-----2---5-7---5-7-7--7-7--7\-----|
E|-----------------3-5---3---------3-5---3--------------------------| 

G|---------------------4--------------------------------------------|
D|-------------4---5-7---5-----4---------------4--------------------|
A|-2-4-5-2-5-7---5---------5-7---5-----2---5-7---5-7-7--7-7--7\-----|
E|---------------------------------3-5---3--------------------------| 


G|------------------------------------------------------------------|
D|------------------------------------------------------------------|
A|-2~--2~--2~--2~---------------------------------------------------|
E|------------------------------------------------------------------| 


| /  slide up
| \  slide down
| h  hammer-on
| p  pull-off
| ~  vibrato
| +  harmonic
| x  Mute note
======================================================================
Composição de Colin Greenwood / Ed O'Brien / Jonny Greenwood / Phil Selway / Thom Yorke
4 reproducciones

0 comentarios

Ver todos os comentários

¿Conseguiste tocar?

0 Tocaram 0 Ainda não

Grave um vídeo tocando Karma Police e nos envie!

00:00 / 00:00
outros vídeos desta música
repetir qualidade Automático
Outros vídeos desta música
00:00 / 00:00
Automático
OK