Cifra Club

Aprenda

Karma Police

Radiohead

Tab de bajo: Versão 2
Karma Police - Radiohead

Contra-Baixo

INTRO
G|-----------------------------------------------------------------|
D|------------------------------------000-----------------00000000-|
A|0000---------02-000----------02-000---------3333000-2222---------|
E|----222200023--0---0222200023--0---0---03333-------0-------------|

G|------------------------------------------------------------------|
D|------------------------------------000-----------------000000000-|
A|0000---------0200000---------02-0000--------333300002222----------|
E|----222200023-------222200023--0-------03333----------------------|

BAIXO PARA.

G|---------------------------------------------------------------------------------|
D|--------00000000------------------------------------000-----------------00000000-|
A|33302220--------0000---------0200000---------0200000--------333300002222---------|
E|--------------------222200023-------222200023----------03333---------------------|

BAIXO PARA.

G|-----------------|-------------------------------X10|
D|--------00000000-|--0-0240-----000-----000----------|
A|33-02220---------|24-2------------------------------|
E|--3--------------|---------3333---33333---000000000-|

enviada por Pedro Adriel Silveira
Composição de Colin Greenwood / Ed O'Brien / Jonny Greenwood / Phil Selway / Thom Yorke
Colaboración y revision:
  • Pedro Silveira
18 reproducciones

0 comentarios

Ver todos os comentários

¿Conseguiste tocar?

0 Tocaram 0 Ainda não

Grave um vídeo tocando Karma Police e nos envie!

00:00 / 00:00
outros vídeos desta música
repetir qualidade Automático
Outros vídeos desta música
00:00 / 00:00
Automático
OK