Cifra Club

Lotus Flower

Radiohead

Cifrado: Principal (guitarra y guitarra eléctrica)
tono: E
(C A D G B E)

Intro: (Riff 1)

Riff 1:
E|-----------------------|
B|------3-----3-----3----|
G|----2-----2-----2------|
D|-----------------------|
A|-----------------------|
C|--5-----2-----0--------|

I will sneak myself into your pocket... etc
E|-----------------------|
B|------3-----3-----3----|
G|----2-----2-----2------|
D|-----------------------|
A|-----------------------|
C|--5-----2-----0--------|

Riff 2:
... want, do what you...
E|-----------------------|
B|-----------------------|
G|------4---------4------|   (2x)
D|----5-----5---5--------|
A|-----------------------|
C|--7-----4---5----------|

...want. I will sink and I will disappear...
E|-----------------------|
B|------3-----3-----3----|
G|----2-----2-----2------|
D|-----------------------|
A|-----------------------|
C|--5-----2-----0--------|

Riff 3:
Slowly we unfurl like lotus flowers etc
E|-------------------------------------------------------------------------------|
B|-----3----3------------3-------3-----------------------------------------------|
G|---2----2-----2----2------2------2---------------------------------------------|
D|----------------------------------------8------8-----------8--------7----------|
A|-1----1-----1---1-------1------1-----10-----10-----10---10---10---8---8--------|
C|-----------------------------------7------7------7----7---------5--------------|
Composición de Radiohead
Colaboración y revisión:
  • danação zumbi
1.948 vistas
    • ½ Tono
    • A
    • Bb
    • B
    • C
    • Db
    • D
    • Eb
    • E
    • F
    • F#
    • G
    • Ab
  • Agregar a la lista

    0 comentarios

    Ver todos los comentarios

    ¿Lograste tocar?

    0 Tocaron 0 Aún no

    ¡Graba un video tocando Lotus Flower y envíanoslo!

    00:00 / 00:00
    Outros vídeos desta música
    Repetir Calidad Automático
    Outros vídeos desta música
    00:00 / 00:00
    Automático
    OK