Cifra Club

(Nice Dream)

Radiohead

Tablatura: Principal (guitarra)
Tom: A
INTRO: (C5 B5 Bb5 A9) 2x

A                            D
They love me like I was a brother
                        E
They protect me, listen to me
      A                   D
They dug me my very own garden
                            E
Gave me sunshine, made me happy

     Bm          E           A  
Nice dream, Nice dream, Nice dream

A                            D
I call up my friend the good angel
                             E  
but she's out with her answerphone
    A                           D               
She says she would love to come help but
              E         
the sea would electrocute us all


     Bm          E           A           F#m
Nice dream, Nice dream, Nice dream, Nice Dream
     Bm          E
Nice dream, Nice dream
     A  
Nice dream (If you think you're strong enough)
     F#m     
Nice dream (If you think you belong enough)
     Bm
Nice dream (If you think you're strong enough)
     Bb
Nice dream (If you think you belong enough)


Solo: (A5 C5 D5)8x
       D E   A F#m Bm E

e|--------------------------------------------------------15~14~12-----------
B|--------------------------------------------------------18~17~15-----------
G|-----5--7~~-----5--7-------------5--7~~------5--7~-------------------------
D|--7----------7--------8~-8----7-----------7--------------------------------
A|----------------------8~-8-------------------------------------------------
E|-------------------------8-------------------------------------------------

-----------------20~19~17-----------------15~14~12--------------------------
-----------------23~22~20-----------------18~17~15~-------------------------
-----5--7~------------------------5--7~-------------------5--7~-------------
--7----------------------------7-----------------------7--------------------
----------------------------------------------------------------------------
----------------------------------------------------------------------------

--20~19~17--------------------|
--23~22~20--------------------|
-----------------5--7~~~~~----|
--------------7---------------|
------------------------------|
------------------------------|
 
     A           F#m         Bm          Bb      A
Nice dream, Nice dream, Nice dream, Nice Dream



Acordes: C5  - x35500
         B5  - x24400
         Bb5 - x13300
         A9  - x02200
         D   - x00323
         E   - 022100
         Bm  - 224432
         F#m - 244222
         A5  - 577xxx
         C5  - 81010xxx
         D5  - 101212xxx
reproducciones 4.134
Acordes para:

    0 comentarios

    mostrar más comentarios

    ¿Conseguiste tocar?

    3 tocaron 0 aún no

    ¡Graba un vídeo tocando (Nice Dream) y envianoslo!

    00:00 / 00:00
    outros vídeos desta música
    repetir qualidade Automático
    Outros vídeos desta música
    00:00 / 00:00
    Automático
    OK