Cifra Club

No Surprises

Radiohead

Cifrado: Principal (guitarra y guitarra eléctrica)
Selo Cifra Club: esta cifra foi revisada para atender aos critérios oficiais da nossa Equipe de Qualidade.
tono: F (con acordes en la forma de D) Capotraste en 3ª casa
Violão: Capo na 3ª casa
Guitarra 1: Capo da 15ª casa
Guitarra 2: Capo na 3ª casa

[Intro] D  Gm  D  Gm 
        D  Gm  D  Gm 

[Tab - Intro]

   D                       Gm
E|-2-------2-------2-------------0----------|
B|-----3-------3-------3-------3------------|
G|---2---2---2---2---2---2-0-3--------------| (4x)
D|------------------------------------------|
A|------------------------------------------|
E|------------------------------------------|

[Primeira Parte]

[Tab - Primeira Parte]

Parte 1 de 2 - 2x
   D
E|-2-------2-------2-------2----------------|
B|-----3-------3-------3-------3------------|
G|---2---2---2---2---2---2---2---2----------|
D|------------------------------------------|
A|------------------------------------------|
E|------------------------------------------|

   Bm6
E|-2-------2-------2-------2----------------|
B|-----3-------3-------3-------3------------|
G|---0---0---0---0---0---0---0---0----------|
D|------------------------------------------|
A|------------------------------------------|
E|------------------------------------------|

   Em              A
E|-3-------3--------------------------------|
B|-----3-------3---3-2----------------------|
G|---4---4---4---4-----2-------2---0--------|
D|-----------------------2-2h4--------------|
A|------------------------------------------|
E|------------------------------------------|

   D                       Gm
E|-2-------2-------2-------------0----------|
B|-----3-------3-------3-------3------------|
G|---2---2---2---2---2---2-0-3--------------|
D|------------------------------------------|
A|------------------------------------------|
E|------------------------------------------|

Parte 2 de 2
   D
E|-2-------2-------2-------2----------------|
B|-----3-------3-------3-------3------------|
G|---2---2---2---2---2---2---2---2----------|
D|------------------------------------------|
A|------------------------------------------|
E|------------------------------------------|

   Bm6
E|-2-------2-------2-------2----------------|
B|-----3-------3-------3-------3------------|
G|---0---0---0---0---0---0---0---0----------|
D|------------------------------------------|
A|------------------------------------------|
E|------------------------------------------|

   D                             
A heart that's full up
        Bm6
Like a landfill
                   Em
A job that slowly kills you
  A                 D   Gm
Bruises that won't heal

 D                  
You look so tired, unhappy
  Bm6
Bring down the government
  Em        
They don't
  A                  D  Gm
They don't speak for us

D
I'll take a quiet life
   Bm6                              
A handshake of carbon monoxide

[Refrão]

[Tab - Refrão]

Parte 1 de 4
   Em            A
E|------------------------------------------|
B|-0-----0-0--------------------------------|
G|---2-2-0-0-2-2-0-----------0-2-0----------|
D|-----------4-4-2-------2h4----------------|
A|------------------------------------------|
E|------------------------------------------|

Parte 2 de 4
   Em            A
E|------------------------------------------|
B|-0-----0-0---------------3---2------------|
G|---2-2-0-0-2-2-0--------------------------|
D|-----------4-4-2-------2---2---2----------|
A|------------------------------------------|
E|------------------------------------------|

Parte 3 de 4
   Em            A
E|------------------------------------------|
B|-0-----0-0--------------------------------|
G|---2-2-0-0-2-2-0-----------0-2-0----------|
D|-----------4-4-2-------2h4----------------|
A|------------------------------------------|
E|------------------------------------------|

Parte 4 de 4 - 2x
   D                       Gm
E|-2-------2-------2-------------0----------|
B|-----3-------3-------3-------3------------|
G|---2---2---2---2---2---2-0-3--------------|
D|------------------------------------------|
A|------------------------------------------|
E|------------------------------------------|

 Em            A                    
No alarms and no surprises
 Em            A                    
No alarms and no surprises
 Em            A                    
No alarms and no surprises
 D     Gm
Silent
 D     Gm
Silent

[Segunda Parte]

[Tab - Segunda Parte]

Parte 1 de 2
   D
E|-2-------2-------2-------2----------------|
B|-----3-------3-------3-------3------------|
G|---2---2---2---2---2---2---2---2----------|
D|------------------------------------------|
A|------------------------------------------|
E|------------------------------------------|

Parte 2 de 2
   Bm6
E|-2-------2-------2-------2----------------|
B|-----3-------3-------3-------3------------|
G|---0---0---0---0---0---0---0---0----------|
D|------------------------------------------|
A|------------------------------------------|
E|------------------------------------------|

  D
This is my final fit
    Bm6
My final bellyache with

[Refrão]

[Tab - Refrão Guitarra 1]

Parte 1 de 4
   Em            A
E|------------------------------------------|
B|-0-----0-0---------------3---2------------|
G|---2-2-0-0-2-2-0--------------------------|
D|-----------4-4-2-------2---2---2----------|
A|------------------------------------------|
E|------------------------------------------|

Parte 2 de 4
   Em            A
E|------------------------------------------|
B|-0-----0-0---------------3---2------------|
G|---2-2-0-0-2-2-0--------------------------|
D|-----------4-4-2-------2---2---2----------|
A|------------------------------------------|
E|------------------------------------------|

Parte 3 de 4
   Em            A
E|------------------------------------------|
B|-0-----0-0--------------------------------|
G|---2-2-0-0-2-2-0-----------0-2-0----------|
D|-----------4-4-2-------2h4----------------|
A|------------------------------------------|
E|------------------------------------------|

Parte 4 de 4
   D                       Gm
E|-2-------2-------2-------------0----------|
B|-----3-------3-------3-------3------------|
G|---2---2---2---2---2---2-0-3--------------|
D|------------------------------------------|
A|------------------------------------------|
E|------------------------------------------|

[Tab - Refrão Guitarra 2]

   D                       Gm
E|-2-------2-------2------------------------|
B|-----3-------3-------3--------------------|
G|---2---2---2---2---2---2-0-2-0-3----------|
D|------------------------------------------|
A|------------------------------------------|
E|------------------------------------------|

 Em            A                    
No alarms and no surprises
 Em            A                    
No alarms and no surprises
 Em            A                    
No alarms and no surprises
  D    Gm     
Please

[Interlúdio] A  Gm  A  Gm   
             Em  Gm 

[Tab - Interlúdio Guitarra 1]

Parte 1 de 3
   A                 Gm
E|-------------------------3-5-3------------|
B|-----2---3p2-----------3-------3----------|
G|-------2-----2---2-0-3-----------3--------|
D|---2-----------2--------------------------|
A|-0----------------------------------------|
E|------------------------------------------|

Parte 2 de 3
   A                 Gm
E|-------------------------3-5-3------------|
B|-------2-3p2-----------3-------3----------|
G|---2---------2---2-0-3-----------3--------|
D|-----2---------2--------------------------|
A|-0----------------------------------------|
E|------------------------------------------|

Parte 3 de 3
   Em              Gm
E|-----------------------------0------------|
B|---------------------1---3----------------|
G|-----0---0---0-2-3------------------------|
D|-2-2---2---4------------------------------|
A|------------------------------------------|
E|------------------------------------------|

[Tab - Interlúdio Guitarra 2]

Parte 1 de 3
   A                 Gm
E|-------------------------0-1-0------------|
B|---------3p2-----------3-------3----------|
G|---2---2-----2---2-0-3-----------3--------|
D|-----2---------2--------------------------|
A|-0----------------------------------------|
E|------------------------------------------|

Parte 2 de 3
   A                 Gm
E|-------------------------0-1-0------------|
B|---------3p2-----------3-------3----------|
G|---2---2-----2---2-0-3--------------------|
D|-----2---------2--------------------------|
A|-0----------------------------------------|
E|------------------------------------------|

Parte 3 de 3
   Em              Gm
E|-0----------------------------------------|
B|-0----------------------------------------|
G|-0----0---0---0-2-3---2---0---3---2-------|
D|-2--| –---2---4-----------------------------|
A|-2----------------------------------------|
E|-0----------------------------------------|

[Terceira Parte]

Parte 1 de 2
   D
E|-2-------2-------2-------2----------------|
B|-----3-------3-------3-------3------------|
G|---2---2---2---2---2---2---2---2----------|
D|------------------------------------------|
A|------------------------------------------|
E|------------------------------------------|

Parte 2 de 2
   Bm6
E|-2-------2-------2-------2----------------|
B|-----3-------3-------3-------3------------|
G|---0---0---0---0---0---0---0---0----------|
D|------------------------------------------|
A|------------------------------------------|
E|------------------------------------------|

 D                  
Such a pretty house and
 Bm6
Such a pretty garden

[Refrão]

[Tab - Refrão]

Parte 1 de 3
   Em            A
E|------------------------------------------|
B|-0-----0-0---------------3---2------------|
G|---2-2-0-0-2-2-0--------------------------|
D|-----------4-4-2-------2---2---2----------|
A|------------------------------------------|
E|------------------------------------------|

Parte 1 de 3
   Em            A
E|------------------------------------------|
B|-0-----0-0---------------3---2------------|
G|---2-2-0-0-2-2-0--------------------------|
D|-----------4-4-2-------2---2---2----------|
A|------------------------------------------|
E|------------------------------------------|

Parte 3 de 3
   Em            A
E|------------------------------------------|
B|-0-----0-0--------------------------------|
G|---2-2-0-0-2-2-0-----------0-2-0----------|
D|-----------4-4-2-------2h4----------------|
A|------------------------------------------|
E|------------------------------------------|

 Em            A                    
No alarms and no surprises
 Em            A                    
No alarms and no surprises
 Em            A                    
No alarms and no surprises, please

[Final] D  Gm  D  Gm  D

[Tab - Final]

Parte 1 de 3
   D                       Gm
E|-2-------2-------2-------------0----------|
B|-----3-------3-------3-------3------------|
G|---2---2---2---2---2---2-0-3--------------|
D|------------------------------------------|
A|------------------------------------------|
E|------------------------------------------|

Parte 2 de 3
   D                       Gm
E|-2-------2-------2-------------0----------|
B|-----3-------3-------3-------3------------|
G|---2---2---2---2---2---2-0-3--------------|
D|------------------------------------------|
A|------------------------------------------|
E|------------------------------------------|

Parte 3 de 3
   D
E|-2----------------------------------------|
B|-3----------------------------------------|
G|-2----------------------------------------|
D|-0----------------------------------------|
A|------------------------------------------|
E|------------------------------------------|
Otros videos de esta canción
    448.523 exhibiciones
    • Simplificar cifrado
      • ½ Tono
      • A
      • Bb
      • B
      • C
      • Db
      • D
      • Eb
      • E
      • F
      • F#
      • G
      • Ab
    • Agregar a la lista

    Afinación de cifrado

    Afinador online

      Capítulos
      • Apresentação
      • Ensinando o Solo da Introdução
      • Explicando a Introdução
      • Ensinando a Base da Intro
      • Explicando a Intro e a Primeira Parte
      • Ensinando o Solo de Guitarra da Primeira Parte
      • Explicando o Refrão
      • Ensinando o Solo do Refrão
      • Explicando o Refrão e o Interlúdio
      • Ensinando o Interlúdio
      • Ensinando a Guitarra 2 no Refrão
      • Encerramento
      OK