Cifra Club

Talk Show Host

Radiohead

Tablatura: Principal (guitarra)
Tom: C
(0:00)

Guitarra 1
E|-----------------------------------|
B|------8-8--8--8----------8-8--8--8-|
G|------8-8--7--5----------8-8--7--5-|
D|-----------------------------------|
A|-----------------------------------|
E|-6-8---------------6-8-------------|

(0:11)

E|-----------------------------------|
B|------8-8--8--8----------8-8--8--8-|
G|------8-8--7--5----------8-8--7--5-|   X2
D|-----------------------------------|
A|-----------------------------------|
E|-----------------------------------|

(0:32)

E|--------------------------------------------------------------------|
B|----------4------------------4----------8-8--8--8--------8-8--8--8--|
G|--------0---0--------------0---0--------8-8--7--5--------8-8--7--5--|
D|------6------------------6------------------------------------------|
A|--------------------------------------------------------------------|
E|--------------------------------------------------------------------|
|
|
|Guitarra 2
E|--------------------------------------------------------------------|
B|--------------------------------------------------------------------|
G|--------------------------------------------------------------------|
D|-6~-------5~------4~-------5~-------/10~----------------------------|
A|--------------------------------------------------------------------|
E|--------------------------------------------------------------------|

(0:54)

E|----------------------------------------------------------------------|
B|------8-8--8--8----------8-8--8--8---------8-8--8--8--------8-8--8--8-|
G|------8-8--7--5----------8-8--7--5---------8-8--7--5--------8-8--7--5-|
D|----------------------------------------------------------------------|
A|----------------------------------------------------------------------|
E|----------------------------------------------------------------------|
|
|
|
E|--------------------------------------------------------------------|
B|--------------------------------------------------------------------|
G|--------------------------------------------------------------------|
D|-------13\10~-----------10/13\10~--------13-13-12\10~-------13~-----|
A|--------------------------------------------------------------------|
E|--------------------------------------------------------------------|

(1:15)

E|--------------------------------------------------------------------|
B|----------4------------------4----------8-8--8--8--------8-8--8--8--|
G|--------0---0--------------0---0--------8-8--7--5--------8-8--7--5--|
D|------6------------------6------------------------------------------|
A|--------------------------------------------------------------------|
E|--------------------------------------------------------------------|
|
|
|
E|--------------------------------------------------------------------|
B|--------------------------------------------------------------------|
G|--------------------------------------------------------------------|
D|-6~-------5~------4~-------5~---------------------------------------|
A|--------------------------------------------------------------------|
E|--------------------------------------------------------------------|

(1:32)

Synth
E|--------------------------------|
B|-8---------------12-------------|
G|-8---------------12-------------|
D|-8---------------12-------------|
A|-6---------------10-------------|
E|--------------------------------|

(1:37)

E|-----------------------------------|
B|------8-8--8--8----------8-8--8--8-|
G|------8-8--7--5----------8-8--7--5-|
D|-----------------------------------|
A|-----------------------------------|
E|-----------------------------------|

(1:48)

E|----------------------------------------------------------------------|
B|------8-8--8--8----------8-8--8--8---------8-8--8--8--------8-8--8--8-|
G|------8-8--7--5----------8-8--7--5---------8-8--7--5--------8-8--7--5-|
D|----------------------------------------------------------------------|
A|----------------------------------------------------------------------|
E|----------------------------------------------------------------------|
|
|
|Guitarra 2 com Wah-wah
E|-------x----------x--------x------------x--------x----------------x-|
B|-x-x-x-x--x-x-x-x-x--x-x-x-x--x-x-x-x-x-x--x-x-x-x--x-x-x-x-x-x-x-x-|
G|-x-x-x-x--x-x-x-x-x--x-x-x-x--x-x-x-x-x-x--x-x-x-x--x-x-x-x-x-x-x-x-|
D|-x-x-x-x--x-x-x-x-x--x-x-x-x--x-x-x-x-x-x--x-x-x-x--x-x-x-x-x-x-x-x-|
A|-x-x-x-x--x-x-x-x-x--x-x-x-x--x-x-x-x-x-x--x-x-x-x--x-x-x-x-x-x-x-x-|
E|-x-x-x-x--x-x-x-x-x--x-x-x-x--x-x-x-x-x-x--x-x-x-x--x-x-x-x-x-x-x-x-|

(2:09)

E|--------------------------------------------------------------------|
B|----------4------------------4----------8-8--8--8--------8-8--8--8--|
G|--------0---0--------------0---0--------8-8--7--5--------8-8--7--5--|
D|------6------------------6------------------------------------------|
A|--------------------------------------------------------------------|
E|--------------------------------------------------------------------|
|
|
|
E|-------x----------x--------x------------x--------x----------------x-|
B|-x-x-x-x--x-x-x-x-x--x-x-x-x--x-x-x-x-x-x--x-x-x-x--x-x-x-x-x-x-x-x-|
G|-x-x-x-x--x-x-x-x-x--x-x-x-x--x-x-x-x-x-x--x-x-x-x--x-x-x-x-x-x-x-x-|
D|-x-x-x-x--x-x-x-x-x--x-x-x-x--x-x-x-x-x-x--x-x-x-x--x-x-x-x-x-x-x-x-|
A|-x-x-x-x--x-x-x-x-x--x-x-x-x--x-x-x-x-x-x--x-x-x-x--x-x-x-x-x-x-x-x-|
E|-x-x-x-x--x-x-x-x-x--x-x-x-x--x-x-x-x-x-x--x-x-x-x--x-x-x-x-x-x-x-x-|
|
|
|Guitarra 3
E|------16p15-16p15-16p15-16p15-16p15-16p15-16p15-16~--------15~----\-|
B|--------------------------------------------------------------------|
G|--------------------------------------------------------------------|
D|--------------------------------------------------------------------|
A|--------------------------------------------------------------------|
E|--------------------------------------------------------------------|

(2:26)

Guitarra 1 and 2
E|-------x----------x--------x------------x--------x----------------x-|
B|-x-x-x-x--x-x-x-x-x--x-x-x-x--x-x-x-x-x-x--x-x-x-x--x-x-x-x-x-x-x-x-|
G|-x-x-x-x--x-x-x-x-x--x-x-x-x--x-x-x-x-x-x--x-x-x-x--x-x-x-x-x-x-x-x-|
D|-x-x-x-x--x-x-x-x-x--x-x-x-x--x-x-x-x-x-x--x-x-x-x--x-x-x-x-x-x-x-x-|
A|-x-x-x-x--x-x-x-x-x--x-x-x-x--x-x-x-x-x-x--x-x-x-x--x-x-x-x-x-x-x-x-|
E|-x-x-x-x--x-x-x-x-x--x-x-x-x--x-x-x-x-x-x--x-x-x-x--x-x-x-x-x-x-x-x-|
|
|
|Guitarra 3
E|--------------------------------------------------------------------|
B|--------------------------------------------------------------------|
G|--/12-13~--------/16~--17~------------------------------------------|
D|--------------------------------------------------------------------|
A|--------------------------------------------------------------------|
E|--------------------------------------------------------------------|
|
|
|
Synth
E|---------------------------------------------------------------|
B|-8----------------12--------------6---------------10-----------|
G|-8----------------12--------------7---------------10-----------|
D|-8----------------12--------------8---------------10-----------|
A|-6----------------10------------------------------8------------|
E|----------------------------------6----------------------------|

(2:36)

Guitarra 1
E|-------------------------------------------|
B|------8-8--8--8----------8-8--8--8---------|
G|------8-8--7--5----------8-8--7--5---------|
D|-------------------------------------------|
A|-------------------------------------------|
E|-------------------------------------------|
|
|
|Guitarra 2 com pedal Wah-wah
E|-------x----------x--------x------------x-|
B|-x-x-x-x--x-x-x-x-x--x-x-x-x--x-x-x-x-x-x-|
G|-x-x-x-x--x-x-x-x-x--x-x-x-x--x-x-x-x-x-x-|
D|-x-x-x-x--x-x-x-x-x--x-x-x-x--x-x-x-x-x-x-|
A|-x-x-x-x--x-x-x-x-x--x-x-x-x--x-x-x-x-x-x-|
E|-x-x-x-x--x-x-x-x-x--x-x-x-x--x-x-x-x-x-x-|
|
|
|Guitarra 3
E|-------------------------/15~-13-15~----------|
B|----------------------------------------------|
G|--17~--17b18r17~------------------------------|
D|----------------------------------------------|
A|----------------------------------------------|
E|----------------------------------------------|

(2:48)

Guitarra 1 and 2
E|-------x----------x--------x------------x--------x----------------x-|
B|-x-x-x-x--x-x-x-x-x--x-x-x-x--x-x-x-x-x-x--x-x-x-x--x-x-x-x-x-x-x-x-|
G|-x-x-x-x--x-x-x-x-x--x-x-x-x--x-x-x-x-x-x--x-x-x-x--x-x-x-x-x-x-x-x-|
D|-x-x-x-x--x-x-x-x-x--x-x-x-x--x-x-x-x-x-x--x-x-x-x--x-x-x-x-x-x-x-x-|
A|-x-x-x-x--x-x-x-x-x--x-x-x-x--x-x-x-x-x-x--x-x-x-x--x-x-x-x-x-x-x-x-|
E|-x-x-x-x--x-x-x-x-x--x-x-x-x--x-x-x-x-x-x--x-x-x-x--x-x-x-x-x-x-x-x-|
|
|
|Guitarra 3
E|----------11~-----10~--------------------------------------------|
B|----/13---------------------------13~----------------------12----|
G|-----------------------------------------------------------------|
D|-----------------------------------------------------------------|
A|-----------------------------------------------------------------|
E|-----------------------------------------------------------------|
|
|
|
Synth
E|---------------------------------------------------------------|
B|-8----------------12--------------6---------------10-----------|
G|-8----------------12--------------7---------------10-----------|
D|-8----------------12--------------8---------------10-----------|
A|-6----------------10------------------------------8------------|
E|----------------------------------6----------------------------|

(2:58)

Guitarra 1
E|----------------------------------------------------------------------|
B|------8-8--8--8----------8-8--8--8---------8-8--8--8--------8-8--8--8-|
G|------8-8--7--5----------8-8--7--5---------8-8--7--5--------8-8--7--5-|
D|----------------------------------------------------------------------|
A|----------------------------------------------------------------------|
E|----------------------------------------------------------------------|
|
|
|Guitarra 2
E|-------x----------x--------x------------x--------x----------------x-|
B|-x-x-x-x--x-x-x-x-x--x-x-x-x--x-x-x-x-x-x--x-x-x-x--x-x-x-x-x-x-x-x-|
G|-x-x-x-x--x-x-x-x-x--x-x-x-x--x-x-x-x-x-x--x-x-x-x--x-x-x-x-x-x-x-x-|
D|-x-x-x-x--x-x-x-x-x--x-x-x-x--x-x-x-x-x-x--x-x-x-x--x-x-x-x-x-x-x-x-|
A|-x-x-x-x--x-x-x-x-x--x-x-x-x--x-x-x-x-x-x--x-x-x-x--x-x-x-x-x-x-x-x-|
E|-x-x-x-x--x-x-x-x-x--x-x-x-x--x-x-x-x-x-x--x-x-x-x--x-x-x-x-x-x-x-x-|
|
|
|Guitarra 3
E|--------------------------------------------/11~-----------------|
B|-13~-------------------------------------------------------------|
G|---------------------\5~--------------\4-------------------------|
D|-----------------------------------------------------------------|
A|-----------------------------------------------------------------|
E|-----------------------------------------------------------------|

(3:21)

E|--------------------------------------------------------------------|
B|----------4------------------4----------8-8--8--8--------8-8--8--8--|
G|--------0---0--------------0---0--------8-8--7--5--------8-8--7--5--|
D|------6------------------6------------------------------------------|
A|--------------------------------------------------------------------|
E|--------------------------------------------------------------------|
|
|
|
E|-------x----------x-------x------------x--------x---------------------x-|
B|-x-x-x-x--x-x-x-x-x-x-x-x-x--x-x-8-x-x-x--8-8-10x--x-x-x-x-x-x--8-8-10x-|
G|-x-x-x-x--x-x-x-x-x-x-x-x-x--x-x-8-x-x-x--8-8-10x--x-x-x-x-x-x--8-8-10x-|
D|-x-x-x-x--x-x-x-x-x-x-x-x-x--x-x-8-x-x-x--8-8-10x--x-x-x-x-x-x--8-8-10x-|
A|-x-x-x-x--x-x-x-x-x-x-x-x-x--x-x-x-x-x-x--x-x-x-x--x-x-x-x-x-x--x-x-x-x-|
E|-x-x-x-x--x-x-x-x-x-x-x-x-x--8-x-8-x-8-8--x-x-x-x--8-x-8-x-8-8--x-x-x-x-|

E|--------------------------------------------------------------------|
B|----------4------------------4----------8-8--8--8--------8-8--8--8--|
G|--------0---0--------------0---0--------8-8--7--5--------8-8--7--5--|
D|------6------------------6------------------------------------------|
A|--------------------------------------------------------------------|
E|--------------------------------------------------------------------|
|
|
|
E|-------x----------x-------x------------x--------x---------------------x-|
B|-x-x-x-8--x-x-x-x-8-x-x-8-8--x-x-8-x-x-x--8-8-10x--x-x-x-x-x-x--8-8-10x-|
G|-x-x-x-8--x-x-x-x-8-x-x-8-8--x-x-8-x-x-x--8-8-10x--x-x-x-x-x-x--8-8-10x-|
D|-x-x-x-8--x-x-x-x-8-x-x-8-8--x-x-8-x-x-x--8-8-10x--x-x-x-x-x-x--8-8-10x-|
A|-x-x-x-x--x-x-x-x-x-x-x-x-x--x-x-x-x-x-x--x-x-x-x--x-x-x-x-x-x--x-x-x-x-|
E|-8-x-x-x--8-x-8-x-x-x-x-x-x--8-x-8-x-8-8--x-x-x-x--8-x-8-x-8-8--x-x-x-x-|

Repita e então vá diminuindo
reproducciones 113
Acordes para:
    Colaboración y revision:
    • Luke Xavier

    0 comentarios

    mostrar más comentarios

    ¿Conseguiste tocar?

    0 tocaron 0 aún no

    ¡Graba un vídeo tocando Talk Show Host y envianoslo!

    00:00 / 00:00
    outros vídeos desta música
    repetir qualidade Automático
    Outros vídeos desta música
    00:00 / 00:00
    Automático
    OK