Cifra Club

Thoughts Of a Dying Atheist

Radiohead

Tablatura: Principal (guitarra)
Tom: E
(intro)

|-------10-----10-----10-|-----10-----10------|---10-----10-----10-|
|---------11-----11------|-11----11-----11----|-----11-----11------|
|-11/12-----12-----12----|---12----12-----11-/|12-----12-----12----|
|------------------------|--------------------|--------------------|
|------------------------|--------------------|--------------------|
|------------------------|--------------------|--------------------|

|------10-----10-----|
|-11-----11-----11---|
|---12-----12-----12-|
|--------------------|
|--------------------|
|--------------------|

(verse 2x)
|----10------10-----10-|------10-----10-----|---10------10-----10-|
|------11------11------|-11-----11-----11---|------11-----11------|
|---------12-----12----|---12-----12-----12-|--------10-----10----|
|-12-------------------|--------------------|-12------------------|
|----------------------|--------------------|---------------------|
|----------------------|--------------------|---------------------|

|------10-------10-------|----11----11-----11-|------11------11-----|
|-11------11-------11----|------11----11------|-11------11-----11---|
|---10-------10-------10-|--------12----12----|---12------12-----12-|
|------------------------|-13-----------------|---------------------|
|------------------------|--------------------|---------------------|
|------------------------|--------------------|---------------------|

|----10------10-----10-|---10-------10--------|-----------10---------|----------11--------|
|------10------10------|------10------10------|------11-----11----11-|-----13-----13--13--|
|---------12-----12----|---------11-----11/12-|---12---12------12----|---12--12-----12----|
|-12-------------------|-12-------------------|-12-------------------|-13-----------------|
|----------------------|----------------------|----------------------|--------------------|
|----------------------|----------------------|----------------------|--------------------|

|----------11------11-|------11-----11-----|--------------------|--------------------|
|-----10-----10-------|-10-----10-----10---|----11-----11-------|----11-----11-------|
|---10--10-----10-----|---10-----10-----10-|------10-----10---10|------10-----10--10-|
|-10------------------|--------------------|-12-----12-----12---|-13------13----13---|
|---------------------|--------------------|--------------------|--------------------|
|---------------------|--------------------|--------------------|--------------------|

|------------------|-----------------------------
|---11----11----11-|-----11----11----------------
|-----10----10-----|-10----10-----10-------------
|-12----12----12---|---12----12------12----------
|------------------|-----------------------------
|------------------|-----------------------------

(chorus)

|-11-|-11-|-11-|-11-|-10-|-10-|-10-|-10-|-----|-11-|--11-|-11-|-11-|-10-|-10-|-11-|-11|
|-13-|-11-|-10-|-10-|-11-|-10-|-11-|-12-|-----|-13-|--11-|-10-|-10-|-11-|-11-|-11-|-11|
|-12-|-12-|-10-|-10-|-10-|-10-|-10-|-10-|-----|-12-|--12-|-10-|-10-|-10-|-13-|-12-|-11|
|-10-|-10-|-10-|-10-|-12-|-12-|-12-|-12-|-----|-10-|--10-|-10-|-10-|-12-|-12-|-13-|-13|
|----|----|----|----|----|----|----|----|-----|----|-----|----|----|----|----|----|---|
|----|----|----|----|----|----|----|----|-----|----|-----|----|----|----|----|----|---|

|-10-|-11-|-11-|-10-|
|-11-|-10-|-11-|-11-|
|-10-|-10-|-12-|-10-|
|-12-|-12-|-13-|-12-|
|----|----|----|----|
|--------------------

(verse 2)
(chorus)

(bridge)
|-x-x-10-----10--10--10-------------10-10-10-------10-10-10-------------
|-x-x-11-----11--11--11---11--------11-11-11-------11-11-11-------------
|-x-x-12-----12--12--12---12--------12-12-12-------12-12-12-------------
|-x-x--------12--12--12---11--------------------------------------------
|-----------------------------------------------------------------------
|-----------------------------------------------------------------------

(solo)
|-----|----|----|-------------------|-----|--------------------|-------|---------|----------------|
|-----|----|----|-------------------|-----|--------------------|-------|---------|----------------|
|-----|----|-12-|-10-------------14-|-14b-|--------17-15-14h15-|-------|-17---17-|-17-15-14--14h15|
|-----|----|----|----12-11-10-------|-----|--------------------|-------|---------|----------------|
|-----|----|----|-------------13----|-----|-10-10--------------|-0-\-/-|---------|----------------|
|13-/-|15--|----|-------------------|-----|--------------------|-------|---------|----------------|

|--------------|-----------------|-------------------|-------------------|-----------------------|-
|--------------|-----------------|-------------------|-------------------|-----------------------|-
|-14-\---------|-15----15\14--15-|--(15)-/-17-----15-|--17---17b-/full\--|--17/full\-17---/full\-|-
|------12--12-/|-----------------|-------------------|-------------------|-----------------------|
|--------------|-----------------|-------------------|-------------------|-----------------------|-
|--------------|-----------------|-------------------|-------------------|-----------------------|

|------------------------|--------------|-------------------------|
|------------------------|--------------|-------------------------|
|------19h17h19b-/full\--|---9b-/full\--|--20b-/full\--~~~~~~~~---|
|------------------------|--------------|-------------------------|
|------------------------|--------------|-------------------------|
|------------------------| -------------|-------------------------|

(chorus)

(end)
|-10-------|
|-11-------|
|-12-------|
|-12-------|
|----------|
|----------|
reproducciones 96
Acordes para:
    Colaboración y revision:
    • Magali Silva

    0 comentarios

    mostrar más comentarios

    ¿Conseguiste tocar?

    0 tocaron 1 aún no

    ¡Graba un vídeo tocando Thoughts Of a Dying Atheist y envianoslo!

    00:00 / 00:00
    outros vídeos desta música
    repetir qualidade Automático
    Outros vídeos desta música
    00:00 / 00:00
    Automático
    OK