Cifra Club

You

Radiohead

Cifrado: Principal (guitarra y guitarra eléctrica)
tono: G
Intro

E|----------------0-------------------0-----------------0---------------0----------0--------|
B|-----------0----------------15------x2--------0------x2------0----------------------------|
G|----13-------------13------------------16--------------14------------14-------------------|
D|------------------------------------------------------------------------------------------|
A|------------------------------------------------------------------------------------------|
E|------------------------------------------------------------------------------------------|

( E Em C9 G D E )
( E Em C9 G D E )

E   Em      C9               G      D   E
You are the sun and moon and stars are you
 Em        C9          G   D    E  
And I could never run away from you

E|-----------------------|
B|-----------------------|
G|-----------------------|
D|-5--X----X----5--7-5---|
A|-5--7-5--7-5--5--5-----|
E|-5--5----5----5--5-----|

( C#9 C9 A5 A5 )
( E5 F#5 G5 A5 B5 C5 B5 )

  Em       C9             G   D   E
You try at working out chaotic things
    Em         C9        G      D    E
And why should I believe myself not you?

E    Em       C9                G   D  E
It's like the world is going to end so soon
    Em         C9        G     D  
And why should I believe myself?

( C#9 C9 A5 A5 )
( E5 F#5 G5 A5 B5 C5 B5 )

E   Em      C9               G      D
You me and everything caught in the fire
E     Em        C9               G      D
I can see me drowning, caught in the fire
E     Em        C9               G      D
You me and everything caught in the fire
E     Em        C9               G      D
And I can see me drowning, caught in the fire
00:00 / 00:00
Otros videos de esta canción
Repetir
Otros videos de esta canción
Composición de Colin Greenwood / Ed O'Brien / Jonny Greenwood / Phil Selway / Thom Yorke
Colaboración y revisión:
  • victor barbosa
  • Julia
  • Rafael Silva
6.044 exhibiciones
    • ½ Tono
    • A
    • Bb
    • B
    • C
    • Db
    • D
    • Eb
    • E
    • F
    • F#
    • G
    • Ab
  • Agregar a la lista
    00:00 / 00:00
    OK