Cifra Club

Amándonos

Rafaga

Cifrado: Principal (guitarra y guitarra eléctrica)
tono: Am
E|------------------------|------------------| |------------------------||
B|-------------------6-5--|------------------| repetir |------------------------||
G|-----5--------4-5-------|----5-------------| |----5-------------------||
D|---7---7--5-5-----------|--7---7--5---5--3-| riftt 1 |--7---7--5-5-6-6-7-))))-||
A|------------------------|-----------5------| |------------------------||
E|------------------------|------------------| |------------------------||

Parte teclado (los mismos acordes de arriba)
Después del riftt 4 los acordes cambian (canto) y va así lam doM solM miM
 distorsión Riftt 4
E|--12-10--------------------------|
B|--------13-12-10-----------------|
G|-----------------13-13-------13--|
D|-----------------------12-12-----|
A|---------------------------------|
E|---------------------------------|
Este es el solo de la guitarra es fácil pero vean los barridos que hay en
este tab. practíquenlo suena muy bien les aseguro esta correcto.


E|-13------13------15''''17---15-13-15-13-12-12------12------13...15---|
B|---15--15--15--15----------------------------13--13--13--13----------|
G|-----14------14--------------------------------14------14------------|
D|---------------------------------------------------------------------|
A|---------------------------------------------------------------------|
E|---------------------------------------------------------------------|

                             (barridos)
E|--13-12-13-12-10-10-7---7-|-10''''7----7--13''''10------10-----------|
B|----------------------9---|--------9--9-----------12--12-------------|
G|--------------------------|---------10--------------13---------------|
D|--------------------------|------------------------------------------|
A|--------------------------|------------------------------------------|
E|--------------------------|------------------------------------------|

E|--16''''13------13---19''''16------16-----22-20-19-20-19-------------|
B|----------15--15-------------18--18---------------------21-----------|
G|------------16-----------------19------------------------------------|
D|---------------------------------------------------------------------|
A|---------------------------------------------------------------------|
E|---------------------------------------------------------------------|
00:00 / 00:00
Otros videos de esta canción
Repetir
Otros videos de esta canción
Composición de Emerson
30 exhibiciones
    • ½ Tono
    • Am
    • Bbm
    • Bm
    • Cm
    • C#m
    • Dm
    • Ebm
    • Em
    • Fm
    • F#m
    • Gm
    • G#m
  • Agregar a la lista
    00:00 / 00:00
    OK