Cifra Club

Bullet In The Head

Rage Against The Machine

Tab de bajo: Versão 4
My second tab, just listen to the song, easy rythms.

                        X15
G|-------------------7---|
D|-------------------6---|
A|--7-7-----7-7-7--------|
E|-----------------------|

16th Time
G|----------------------7-9---|
D|------------------7-9-------|
A|--7-7-----7-7-7-------------|
E|----------------------------|
                       X4    
G|-------------------7---|
D|-------------------6---|
A|--7-7-----7-7-7--------|
E|-----------------------|

Chorus-                         X2
G|-------------------------------|
D|-------------------------------|
A|-------------------------------|
E|--0---3---5-------7--5--3--0---|

                        X8
G|-------------------7---|
D|-------------------6---|
A|--7-7-----7-7-7--------|
E|-----------------------|

Chorus-                         X2
G|-------------------------------|
D|-------------------------------|
A|-------------------------------|
E|--0---3---5-------7--5--3--0---|

Eighth note part thingy, whatever you wanna call it
G|-----------------------------------|
D|-----------------------------------|
A|-7-7-7-7-7-7-5---------------------|
E|---------------7--0-3-5-3-0-0-0----|

End part- Just hit 7th fret on the A string on the accents with the guitar



Thats bought it, I hope its all good. Peace out, keep playin bass.
Composición de Rage Against the Machine / Zack de la Rocha

0 comentarios

Ver todos los comentarios

¿Lograste tocar?

0 Tocaron 0 Aún no

¡Graba un video tocando Bullet In The Head y envíanoslo!

00:00 / 00:00
Outros vídeos desta música
Repetir Calidad Automático
Outros vídeos desta música
00:00 / 00:00
Automático
OK