Cifra Club

Aprenda

Bulls On Parade

Rage Against The Machine

Tablatura: Principal (guitarra)
tono: C (con acordes en la forma de C#) Afinação: Eb Ab Db Gb Bb Eb
Riff 1:
Eb|--------------------------------|
Bb|--------------------------------|
Gb|--------------------------------| 4x
Db|-4-------4---4--------4---4-----|
Ab|--------------------------------|
Eb|----2-----------2------------2--|

Riff 2:
Eb|------------------------------|
Bb|------------------------------|  4x
Gb|------------------------------|
Db|------------------------------| Nesse riff, você deve usar Wah-Wah pedal, pisando e soltando.
Ab|-4--4--X-X--4--4--X-X-X-X-X-X-|
Eb|-2--2--X-X--2--2--X-X-X-X-X-X-|

Riff 3:
Eb|------------------------------------------|
Bb|------------------------------------------|
Gb|------------------------------------------|Esse riff é tocado durante as estrofes.
Db|------------------------------------------|
Ab|---------0----2p0-------------------------|   
Eb|-0---2--------------0h2-2----2-0-0-1------|

The microphone explodes shattering the molds
Either drop the hits like de la o or get the fuck off the comode
Wit tha sure shot
Sure to make the bodies drop drop and don't copy
Yo don't call this a co-op
Terror rains drenchin' quenchin' the thirst of the power dons
That five-sided fist a-gon
Tha rotten sore on the face of Mother Earth gets bigger
The trigger's cold empty ya purse

Riff 4:
E|-------------------------------------------------------------------------|
B|-------------------------------------------------------------------------|
G|-------------------------------------------------------------------------|Toca durante a frase abaixo.
D|-4--4--4------4----4--4--4------4----4--4--4-------4----4--4--4--4-----4-|
A|-----------X------------------------------------X------------------------|
E|-3--2--2---X--2----0--2--2------2----3--2--2----X--2----2--2--2--2--0--2-|

Rally round the family with a pocket full of shells X4

Riff 3:
Eb|------------------------------------------|
Bb|------------------------------------------|
Gb|------------------------------------------|
Db|------------------------------------------| p = Pull Off
Ab|---------0----2p0-------------------------|
Eb|-0---2--------------0p2-2----2-0-0-1------|

Weapons no food not homes not shoes not need just feed the war cannibal
animal I
Walk tha corner to the rubble that used to be a library line up to the
mind cemetary now
What we don't know keeps the contracts alive and movin
They don't gotta burn the books they just remove 'em
While arms warehouses fill as quick as the cells
Rally round the family
Pocket full of shells

Riff 4:
Eb|-------------------------------------------------------------------------|
Bb|-------------------------------------------------------------------------|
Gb|-------------------------------------------------------------------------|Toca durante a frase abaixo.
Db|-4--4--4------4----4--4--4------4----4--4--4-------4----4--4--4--4-----4-|
Ab|-----------X------------------------------------X------------------------|
Eb|-3--2--2---X--2----0--2--2------2----3--2--2----X--2----2--2--2--2--0--2-|

Rally round the family, with a pocket full of shells (4x)

                  B5
Eb|------------------------------------------------------------------|
Bb|------------------------------------------------------------------|
Gb|------------------------------------------------------------------|
Db|------------------------------------------------------------------|
Ab|----9---9-----x--x----9---9----x--x-----9---9----x--x-------------|
Eb|----7---7-----x--x----7---7----x--x-----7---7----x--x-------------|

Bulls on parade!!!

Solo: pra esse solo, você precisa de um killswitch na sua guitarra (em guitarras que possuem diferentes knobs de volume para cada captador, basta deixar um no minimo e o outro no maximo e ir alternando). Só "arranhe" as cordas simultaneamente com o killswitch.

Eb|--------------------------------------|
Bb|--------------------------------------|
Gb|--------------------------------------|
Db|----4----4----x--x--x--x--x--x--------| 20x
Ab|----2----2----x--x--x--x--x--x--------|
Eb|--------------------------------------|

Riff 1:
Eb|--------------------------------|
Bb|--------------------------------|
Gb|--------------------------------|
Db|-4-------4---4--------4---4-----| 6x
Ab|--------------------------------|
Eb|----2-----------2------------2--|
Composição de Brad Wilk / Tim Commerford / Tom Morello / Zack de la Rocha
4.383 reproducciones
    • ½ Tono
    • A
    • Bb
    • B
    • C
    • Db
    • D
    • Eb
    • E
    • F
    • F#
    • G
    • Ab
  • Adicionar à lista

    0 comentarios

    Ver todos os comentários

    ¿Conseguiste tocar?

    51 Tocaram 1 Ainda não

    Grave um vídeo tocando Bulls On Parade e nos envie!

    00:00 / 00:00
    outros vídeos desta música
    repetir qualidade Automático
    Outros vídeos desta música
    00:00 / 00:00
    Automático
    OK