Cifra Club

Testify

Rage Against The Machine

Cifrado: Principal (guitarra y guitarra eléctrica)
tono: C
(intro parte 1)
E|----------------|
B|----------------|
G|----------------|(Feito com Digitech WH-1 Whammy e Ibanez DFL-10 Flanger)
D|----------------|
A|----------------|
D|-0-0-0-0-0-0...-|

(intro parte 2)
E|---------------------------------------------------------------|
B|--6----------------------------5-------------------------------|
G|--5----------------------------6-------------------------------|(2x)
D|--x----------------------------x--------------------------12b--|
A|--5--------3------5\3-x-0------5------0-7-10--0-5/3-x-0---12b--|
D|-----3/5-0------0-----x-0-5/3----3/5--0-7-10--0-----x-0---12b--|

Huh!

(verso)
E|----------------|
B|----------------|
G|----------------|(Feito com Digitech WH-1 Whammy e Ibanez DFL-10 Flanger)
D|----------------|
A|----------------|
D|-0-0-0-0-0-0...-|

The movie ran through me
The glamour subdue me
The tabloid untie me
I'm empty please fill me
Mister anchor assure me
That Baghdad is burning
Your voice it is so soothing
That cunning mantra of killing
I need you my witness
To dress this up so bloodless
To numb me and purge me now
Of thoughts of blaming you
Yes the car is our wheelchair
My witness your coughing
Oily silence mocks the legless
Ones who travel now in coffins
On the corner
The jury's sleepless
We found your weakness
And it's right outside our door
Now testify

(refrão)
E|---------------------------------------------------------------|
B|--6----------------------------5-------------------------------|
G|--5----------------------------6-------------------------------|(2x)
D|--x----------------------------x--------------------------12b--|
A|--5--------3------5\3-x-0------5------0-7-10--0-5/3-x-0---12b--|
D|-----3/5-0------0-----x-0-5/3----3/5--0-7-10--0-----x-0---12b--|

Now testify
It's right outside our door
Now testify
Yes, testify
It's right outside our door

(verso)
E|----------------|
B|----------------|
G|----------------|(Feito com Digitech WH-1 Whammy e Ibanez DFL-10 Flanger)
D|----------------|
A|----------------|
D|-0-0-0-0-0-0...-|

With precision you feed me
My witness I'm hungry
Your temple it calms me
So I can carry on
My slaving sweating the skin right off my bones
On a bed of fire I'm choking on the smoke that fills my home
The wrecking ball rushing
Witness your blushing
The pipeline is gushing
While here we lie in tombs
While on the corner
The jury's sleepless
We found your weakness
And it's right outside your door
Now testify

(refrão)
E|---------------------------------------------------------------|
B|--6----------------------------5-------------------------------|
G|--5----------------------------6-------------------------------|(2x)
D|--x----------------------------x--------------------------12b--|
A|--5--------3------5\3-x-0------5------0-7-10--0-5/3-x-0---12b--|
D|-----3/5-0------0-----x-0-5/3----3/5--0-7-10--0-----x-0---12b--|

Yeah testify
It's right outside our door
Now testify
Now testify
It's right outside our door

(outro)
E|-10--x-x-10-|
B|-x---x-x-x--|
G|-7---x-x-7--|(aprox. 14x)
D|------------|
A|------------|
D|------------|

Mass graves for the pump and the price is set
Mass graves for the pump and the price is set
Mass graves for the pump and the price is set
Mass graves for the pump and the price is set

(solo)
Tom Morello desconecta o cabo da guitarra e fica tocando o captador. Ao mesmo tempo usa o pedal Digitech WH-1 Whammy.

(outro 2)
E|----------------------------------------------|
B|----------------------------------------------|
G|----5---------5-------------------------------|
D|-3--5--0---3--5--0----12b-12b-12b-12b-12b-12b-|
A|-3--3--0---3--3--0----12b-12b-12b-12b-12b-12b-|
D|-3-----0---3-----0----12b-12b-12b-12b-12b-12b-|

Who controls the past now controls the future
Who controls the present now controls the past
Who controls the past now controls the future
Who controls the present now?

(refrão)
E|---------------------------------------------------------------|
B|--6----------------------------5-------------------------------|
G|--5----------------------------6-------------------------------|(2x)
D|--x----------------------------x--------------------------12b--|
A|--5--------3------5\3-x-0------5------0-7-10--0-5/3-x-0---12b--|
D|-----3/5-0------0-----x-0-5/3----3/5--0-7-10--0-----x-0---12b--|

Now testify
Testify
It's right outside our door
Now testify
Testify
It's right outside our door

(final)
E|-----------------|
B|-----------------|
G|-----------------|
D|-12b-12b-12b-12b-|
A|-12b-12b-12b-12b-|
D|-12b-12b-12b-12b-|
    
Composición de Brad Wilk / Tim Commerford / Tom Morello / Zack de la Rocha
Colaboración y revisión:
  • rodrigo sotovia
  • Romulo Teixeira
860 vistas
    • ½ Tono
    • A
    • Bb
    • B
    • C
    • Db
    • D
    • Eb
    • E
    • F
    • F#
    • G
    • Ab
  • Agregar a la lista

    0 comentarios

    Ver todos los comentarios

    ¿Lograste tocar?

    5 Tocaron 0 Aún no

    ¡Graba un video tocando Testify y envíanoslo!

    00:00 / 00:00
    Outros vídeos desta música
    Repetir Calidad Automático
    Outros vídeos desta música
    00:00 / 00:00
    Automático
    OK