Cifra Club

20 E Poucos Anos

Raimundos

Tab de bajo: Principal
RIFF 1:
G-------------------------------------------
D-------------------------------------------
A----------------7-7-7-7/5-5-5-5-5-5-5-5      2X
E---5-5-5-5-5------------------------------

RIFF 2:
G--------------------------------------------
D--------------------------------------------
A------------4-4-4--------------------------
E---5-5-5-5---------2-2-2-2-2-2-2---------

RIFF3:
G:------------------------------------
D------------------------------------
A--5-5-5-5-5-5-5/7-7-7-7-7--7-7--
E-----------------------------------5

REFRÃO:
G-------------------------------------------------------------------------------
D--------------------------------------------------------------------------------
A---5-5-5-5-5-5-7-7-7-7-7------------4-4-4-4--5-5-5-5-5-5/7-7-7-7-7-7---
E-----------------------------5-5-5-5-5---------------------------------------5

Parte 1:
G------------------------------------------------
D------------------------------------------------
A------------------------------------------------     2X
E--4/5-5-5/4/5-5-5/4/5-5-5---------------------

Parte 2:
G-----------------------------------------------
D-----------------------------------------------
A-------7-7------------------------------------      4X
E--5-5-------8-8-8-8-8-8/10-10-10-10-10-10

RIFF 1:
Voce sabe me conhece muito bem
 eu sou capaz vou ir muito mais

RIFF 2:
Do que voce imaginaaaaaaaaaaa

RIFF 1:
Eu nao desisto assim tão fácil meu amor,
das coisas que eu quero fazer e ainda nao fiz

RIFF 2:
Na vida tudo tem seu preço seu valor

RIFF 3:
E o que eu quero nessa vida é ser feliz


REFRAO:
Eu nao abro mao (PARTE EM PAUSA)
Nem por voce nem por ninguem eu nao desfarço dos meus planos        2X SO NA 
Quero saber meus vintes poucos anos -PARTE 1                           Segunda tocasse Parte 2

RIFF 1:
Tem gente ainda me esperando pra contar,
as novidades que eu nao canso de saber

RIFF 2:
Eu sei tambem tem gente me enganando

RIFF 3:
Mais que bobagem agora é hora de crescer

REFRAO

_______________________________________________________
Contribuição: André Souza Almeida(writable@bol.com.br)
00:00 / 00:00
Otros videos de esta canción
Repetir
Otros videos de esta canción
Composición de Fabio Junior
42 vistas

0 comentarios

Ver todos los comentarios

¿Lograste tocar?

2 Tocaron 1 Aún no

¡Graba un video tocando 20 E Poucos Anos y envíanoslo!

00:00 / 00:00
OK