Cifra Club

Baculejo

Raimundos

Cifrado: Principal (guitarra y guitarra eléctrica)
Acompaña nuestras novedades de Cifra Club en español.
¡Sigue nuestro perfil en Instagram!
tono: A
[Intro]  F#5  B5  D5  F#5  B5  D5  D#5  E5

 B5                 D5           A5
Vai, que eu também vou, vou avançar
   B5            D5
Engatado no seu carro
 A5                 B5            D5  A5
Vai, que eu também vou, chegando lá

F#5  E5           B5
  Baculejo lá do céu
           D5            A5
  Virou o vento a meu favor
      B5
  Pra onde eu quero
      D5         F#5
  Pra onde você for
          E5            B5
  Tem um capô atrás do véu
    D5              A5
  Adonde existe a flor
                 F#5
  Esculpida com calor

B5                D5           A5
Enquanto o tempo para pra nós dois
               B5
Tudo fica bom depois
        D5        A5
Esquece até quem tu é
 B5             D5            A5
No meu plano a gente simplifica
                   B5
É a coisinha mais bonita
        D5             A5    E5
Ela me leva onde ela quiser


 B5                 D5           A5
Vai, que eu também vou, vou avançar
B5           D5
Engatado no seu carro
 A5                 B5            D5
Vai, que eu também vou, chegando lá
                     A5
Esqueço até quem eu sou

F#5    E5         B5
  Duas alas reunidas
       D5           A5
  O café já foi servido
       B5         D5              F#5
  Mas tenho fome sempre que é contigo
         E5           B5
  Eu te dou o meu chapéu
       D5            A5
  E te ensino a esperar
                            F#5
  Mesmo sem chuva faz você molhar


[Solo]  F#5  C#5  A5  E5  F5  F#5  C#5  D5  D#5  E5

Eb|-------------------------------------|------------------------------------------------|
Bb|-------------------------------------|------------------------------------------------|
Gb|-------------------------------------|----------------------------------------- ------|
Db|---------------2---------------------|-----------------------2-----2--4/6-6/4--4/6/7--|
Ab|---------2--4----4--2----2-----------|-----------------2--4-----4---------------------|
Eb|--2--2-5--------------5-----5--4--0--|--0--1--2--2--5---------------------------------|

Eb|------------------------------------------------------------------------------------------------------|
Bb|--12-12-12-12-12-12-12-12--14-14-14-14-14-14-14-14--15-15-15-15-15-15-15-15--17-17-17-17-17-17-17-17--|
Gb|------------------------------------------------------------------------------------------------------|
Db|--9--9--9--9--9--9--9--9---11-11-11-11-11-11-11-11--12-12-12-12-12-12-12-12--14-14-14-14-14-14-14-14--|
Ab|------------------------------------------------------------------------------------------------------|
Eb|------------------------------------------------------------------------------------------------------|

B5              D5            A5
E quanto tempo falta pra nós dois
                B5
Pra tudo ficar bom depois
        D5        A5
Esquece até quem tu é
 B5             D5            A5
No meu plano a gente simplifica
                     B5
O teu sorriso já explica
        D5             A5    E5
Ela me leva onde ela quiser


 B5                 D5           A5
Vai, que eu também vou, vou avançar
   B5            D5
Engatado no seu carro
 A5                 B5            D5
Vai, que eu também vou, chegando lá
                 A5  D5
Esqueço até quem eu sou
                 A5  D5
Esqueço até quem eu sou
        A5
Esqueço até
Composición de Raimundos
272 vistas
  • Simplificar cifrado
    • ½ Tono
    • A
    • Bb
    • B
    • C
    • Db
    • D
    • Eb
    • E
    • F
    • F#
    • G
    • Ab
  • Agregar a la lista

    0 comentarios

    Ver todos los comentarios
    00:00 / 00:00
    Outros vídeos desta música
    Repetir Calidad Automático
    Outros vídeos desta música
    00:00 / 00:00
    Automático
    OK