Cifra Club

Bonita

Raimundos

Tab de bajo: Principal
Intr:
--------------------------------
--------------------------------         4 vezes
--2-0-2-4-------4-2-0-4---------
-----------2-2------------------


Riff 1
--------------------------------
--------------------------------
--------------------------------
--5-5-5-5-4-5-5-5-5-4-5-5-5-5-4-...


Pra que deixar de fora se la dentro...


...é que tá quente
Intr.



Riff 1
--------------------------------
--------------------------------
--------------------------------
--5-5-5-5-4-5-5-5-5-4-5-5-5-5-4-...


Quando encontrar com ela vou deixar...


...marcado o dente
Intr.


Riff 2
-------------------------------
-------------------------------
--2-2-2-2-2--5-5-5-5-5---------
-------------------------------


Vou voltar pra ver o filme da metade


Riff 3
-------------------------------
-------------------------------
-------------------------------
--2-2-2-2-2-0-2-2-2-2-2-0------...


Riff 2
Isso passa todo dia bem em frente
Riff 1
Pode sentar no colo que aqui ninguém vê a gente
Intr.


Riff 4
-------------------------------
-------------------------------
--2-2-2-2-2-------7-7-7-7-7----
-------------------------------


De olho fechado    que raiva do avião
eu morde forte     que te levou daqui
ela nem sente


Riff 5
--------------------------------
--------------------------------
--------------5-5-5-5-----------
--5-5-5-5----------------------------2-2-2-2--


Ela me disse   e mertiolate arde que só o cheiro me
faz
é tarde                                 


Riff 6
--------------------------------
--------------------------------
----------7-7-7--5-5-5----------
----0-0-0-----------------------
Dormi     sempre iiiii


Riff 5
Sem você na cidade tudo que tem lá também sumiu
diz que horas   


Riff 7
--------------------------------
--------------------------------
--7-7-7-7-7-7-------------------
--------------------------------
 São que eu vou dormir



Riff 3


Riff 1
Linda tudo que eu vejo é verde
Intr.
Menina a gente grande a minha mão
Riff 1
Ninar você na minha rede
Intr. 
Pra gente se encontrar num sonho bom


Riff 4
De olho fechado eu mordo forte ela nem sente
De volta no avião eu vou subir


Riff 5
Ela me disse é tarde e quando voltar vai ser melhor
A gente nem vai 


Riff 6
Dormir nunca


De volta na cidade eu vou acelerando a mais de mil
Diz que horas 


Riff  7
 São que eu vou dormir


Riff 8
---------------------------
---------------------------
--2-0-2-4------------------
-----------2---------------

_______________________________________________________
Contribuição: André Souza Almeida(writable@bol.com.br)
00:00 / 00:00
Otros videos de esta canción
Repetir
Otros videos de esta canción
Composición de Rodolfo Abrantes
79 vistas

0 comentarios

Ver todos los comentarios

¿Lograste tocar?

2 Tocaron 0 Aún no

¡Graba un video tocando Bonita y envíanoslo!

00:00 / 00:00
OK