Cifra Club

Cera Quente

Raimundos

Cifrado: Principal (guitarra y guitarra eléctrica)
tono: Db (con acordes en la forma de D) Afinación: Eb Ab Db Gb Bb Eb
INTRO: D Bm G Em
      (D A)(2x)

D                        Bm
De longe ela sorriu pra mim
                              C  G  C
Na minha infancia ela era melhor
              G              D
Que bom que a gente se encontrou
                       Bm
Ela veio na minha direção
                        C  G  C
Na minha cabeça tudo parou
          G             D     A
Só meu volume que aumentou
G
Botei na sua mão
Em                   D    A (acorde inverso)
Tirei sua blusa devagar, aaah
        G              G  F#    Em
Abri o seu botão (me lembrou então) a playboy da Claudia Ohana

D
Se ela der mole eu como até o caroço
F#                             Bm
Mas eu sei muito bem onde vai dar
                G
Cera quente eu sei, lisa como o ar
D
Imagina todo o nosso esforço
F#                            Bm
Pode doer mas eu vou bem devagar
                Em                D   A   D   A
Cera quente eu sei, você vai gostar

Base solo:
(D Bm C G C G D A)
(G Em D)

G
Abri o seu botão
Em                   D    A (acorde inverso)
Tirei sua calça devagar, aaah
      G               G F# Em
Deslizei minha mão...
                       D
Dessa vez vai ser tão bom!

D
Se ela der mole eu como até o caroço
F#                             Bm
Mas eu sei muito bem onde vai dar
                G
Cera quente eu sei, lisa como o ar
D
Imagina todo o nosso esforço
F#                            Bm
Pode doer mas eu vou bem devagar
                Em                D  A  D
Cera quente eu sei, você vai gostar

INTRO:
Eb|-----------------------------------------------------------------------------------|
Bb|-----------------------------------------------------------------------------------|
Gb|---11/12-11-9-11----11/12-11-9-11---11/12-11-9-11-------------12~~--9-7-6-7~~------|
Db|--------------------------------------------------9~~--11-12-----------------------|
Ab|---9/10--9--7-9-----9/10--9--7-9----9/10--9--7-9--------------10~~--7-5-4-7~~------|
Eb|--------------------------------------------------7~~--9--10-----------------------|

 Nas passagens (D A), o Marquim faz este riff - no final, também, mas ele segura mais na parte do D.
Eb|---------------------------|
Bb|---------------------------|
Gb|---------------------------|
Db|--7--77-6-7-9-7------------|
Ab|--5--55-4-5-7-5---77777777-|
Eb|------------------55555555-|

SOLO:
Eb|--------------------------------------------------------------------------------------------------|
Bb|--10-10-8-7---77~--10-10-8-7---7-8~-7-----88-7-8-7-------7^-------88-7---------------------7--7^--|
Gb|------------9----------------9--------9-7----------9-7------7h9p7------9-7-------------7-9--------|
Db|-------------------------------------------------------9-------------------9------7-9-------------|
Ab|-------------------------------------------------------------------------------10-----------------|
Eb|--------------------------------------------------------------------------------------------------|
00:00 / 00:00
Otros videos de esta canción
Repetir
Otros videos de esta canción
Composición de Raimundos
Colaboración y revisión:
  • Pedro Tumelero
171 vistas
    • ½ Tono
    • A
    • Bb
    • B
    • C
    • Db
    • D
    • Eb
    • E
    • F
    • F#
    • G
    • Ab
  • Agregar a la lista

    0 comentarios

    Ver todos los comentarios

    ¿Lograste tocar?

    5 Tocaron 0 Aún no

    ¡Graba un video tocando Cera Quente y envíanoslo!

    00:00 / 00:00
    OK