Cifra Club

Eu Quero Ver o Oco

Raimundos

Chords: Principal (acoustic and electric guitars)
tone: G
Afinação: D A D G B E

[Intro]
 
[Passagem]

   G5 A5 D5
E|------------------------------------------|
B|------------------------------------------|
G|------------------------------------------|
D|-5--7--0----------------------------------|
A|-5--7--0----------------------------------|
E|-5--7--0----------------------------------|
 
[Riff 1]
 
[Parte 1 de 2] 
   E5       D5 E5       G5 A5 D5 E5 G5 A5 D5
E|------------------------------------------|
B|------------------------------------------|
G|------------------------------------------|
D|-2--2--2--0--2----2---5--7--0--2--5--7--0-| (2x)
A|-2--2--2--0--2----2---5--7--0--2--5--7--0-|
E|-2--2--2--0--2----2---5--7--0--2--5--7--0-|
 
[Parte 2 de 2]
   E5       D5 E5 D5 E5  G5 A5 D5 E5 G5 A5 D5
E|------------------------------------------|
B|------------------------------------------|
G|------------------------------------------|
D|-2--2--2--0--2--0--2---5--7--0--2--5--7--0| (2x)
A|-2--2--2--0--2--0--2---5--7--0--2--5--7--0|
E|-2--2--2--0--2--0--2---5--7--0--2--5--7--0|
 
[Riff 2]
 
   G5      A5  A#5 B7      C5   C#5
E|------------------------------------------|
B|------------------------------------------|
G|------------------------------------------|
D|-5---5---7---8---9---9---10---11----------| (4x)
A|-5---5---7---8---9---9---10---11----------|
E|-5---5---7---8---9---9---10---11----------|
 
[Primeira Parte]

(Passagem)

   E5                               G5 A5 D5 
E|------------------------------------------|
B|------------------------------------------|
G|------------------------------------------|
D|-2--------------------------------5--7--0-|
A|-2--------------------------------5--7--0-|
E|-2--------------------------------5--7--0-|

E5  G5  A5  D5
   Fi__ze__ra 

[Riff 3]

[Parte 1 de 2]
   E5       D5 E5 D5 E5  G5 A5 D5 E5 F#5 A5 D5
E|--------------------------------------------|
B|--------------------------------------------|
G|--------------------------------------------|
D|-2--2--2--0--2--0--2---5--7--0--2--4---5--0-|
A|-2--2--2--0--2--0--2---5--7--0--2--4---5--0-|
E|-2--2--2--0--2--0--2---5--7--0--2--4---5--0-|
 
[Parte 2 de 2]
   E5       D5 E5 D5 E5  D5    G5    C5   F5
E|--------------------------------------------|
B|--------------------------------------------|
G|--------------------------------------------|
D|-2--2--2--0--2--0--2---7--7--------5--5-----|
A|-2--2--2--0--2--0--2---5--5--5--5--3--3-3---|
E|-2--2--2--0--2--0--2---------5--5-------3---|

[Riff 3]

Pouco em tê-lo deixado
Todo quebrado, desfigurado
Irreconhecível até pra mãe
Mãe, olha só que legal
Carro que eu ganhei no Natal
Tu que me deu, disse
Cuidado pra que não arranhe

[Segunda Parte]

[Riff 4]

[Parte 1 de 4]
   G5      A5  A#5 B7      C5   C#5
E|------------------------------------------|
B|------------------------------------------|
G|------------------------------------------|
D|-5---5---7---8---9---9---10---11----------| (3x)
A|-5---5---7---8---9---9---10---11----------|
E|-5---5---7---8---9---9---10---11----------|

[Parte 2 de 4] 
   G5      A5  A#5 B7       
E|------------------------------------------|
B|------------------------------------------|
G|------------------------------------------|
D|-5---5---7---8---9---9---9---9------------|
A|-5---5---7---8---9---9---9---9------------|
E|-5---5---7---8---9---9---9---9------------|
 
[Parte 3 de 4]
   G5      A5  A#5 B7      C5   C#5
E|------------------------------------------|
B|------------------------------------------|
G|------------------------------------------|
D|-5---5---7---8---9---9---10---11----------| (3x)
A|-5---5---7---8---9---9---10---11----------|
E|-5---5---7---8---9---9---10---11----------|

[Parte 4 de 4] 
   G5              A5
E|------------------------------------------|
B|------------------------------------------|
G|------------------------------------------|
D|-5--5--5--5------7--7--7------------------|
A|-5--5--5--5------7--7--7------------------|
E|-5--5--5--5------7--7--7------------------|

Menino doido, tu quebrou até os friso
Tem noção do prejuízo?
Acho que o teu véio vai te matar
Os olhos dele esperando o carro do
ano
Um modelo italiano que acabaram de inventar

[Primeira Parte com Variação na Letra]

(Riff 3)

Carrão da porra, tu pisava ele voava
Tu freava, ele ancorava
E eu lá dentro a me debater
No bate-bate com a cabeça no volante
Voei pelo, vidro da frente
A raiva preta eu não pude conter
 
[Segunda Parte com Variação na Letra]

(Riff 4)

Com o sangue quente, cortei a testa
Quebrei os dente e toda aquela gente
Peste! Num vem ninguém me ajudar
Nem se mexiam, pior que isso eles riam
Teto preto, o tempo fecha
Os 'zóvo inflama, ora do pau cantar
 
[Refrão]

[Riff 5]

   D5                  F5       G5    G#5 A5 
E|------------------------------------------|
B|------------------------------------------|
G|------------------------------------------|
D|-0--0--0--0--0---0---3--3--3--5--5--6---7-| (4x)
A|-0--0--0--0--0---0---3--3--3--5--5--6| –--7-|
E|-0--0--0--0--0---0---3--3--3--5--5--6---7-|

Eu quero é ver o oco
Só na mãozada eu deitei seis, mas 
detestei matar
Eu quero é ver o oco
Sem controle, tocando fole, é o hora 
E dançar

[Passagem]
 
[Riff 6]

[Parte 1 de 2]
   B5        C5 B5 C5 B5         C5 B5 C5 B5       
E|------------------------------------------|
B|------------------------------------------|
G|-4--4---4--5--4--5--4---4---4--5--4--5--4-|
D|-4--4---4--5--4--5--4---4---4--5--4--5--4-|
A|-2--2---2--3--2--3--2---2---2--3--2--3--2-|
E|------------------------------------------|
 
[Parte 2 de 2]
   B5          C5 B5 C5 B5        
E|------------------------------------------|
B|------------------------------------------|
G|-4--4-----4--5--4--5--4----4-----4--4-----|
D|-4--4-----4--5--4--5--4----4-----4--4-----|
A|-2--2-----2--3--2--3--2----2-----2--2-----|
E|------------------------------------------|
 
[Primeira Parte com Variação na Letra]

(Riff 3)

Meu ódio por automotores começou cedo
Depois que eu tranquei os dedo na porta dum opalão
Meu pai de dentro se ria, que se mijava
Achou que o filho festejava
Era dia de Cosme e Damião

[Primeira Parte com Variação na Letra]

(Riff 4)

Depois do dedo, foi o braço, a perna as costa
Tu duvida, bate aposta
Pois muitos vão lhe testemunhar
Tanta fratura que deixá doutora louca
É pino até no céu da boca
Tu cansa só de tentar contar
 
[Refrão]

(Riff 5)

Eu quero é ver o oco
É pedir muito uma enfermeira vir me ajudar?
 
Eu quero é ver o oco
Ó enfermeira, gente boa, vem me medicar
 
[Passagem] 

   D5
E|------------------------------------------|
B|------------------------------------------|
G|------------------------------------------|
D|-0-------------------0--0--0--0--0--0--0--|
A|-0-------------------0--0--0--0--0--0--0--|
E|-0-------------------0--0--0--0--0--0--0--|
 
[Base solo - Riff 7]

[Parte 1 de 2]
   B5        C5 B5 C5 B5         C5 B5 C5 B5       
E|------------------------------------------|
B|------------------------------------------|
G|-4--4---4--5--4--5--4---4---4--5--4--5--4-|
D|-4--4---4--5--4--5--4---4---4--5--4--5--4-|
A|-2--2---2--3--2--3--2---2---2--3--2--3--2-|
E|------------------------------------------|
 
[Parte 2 de 2]
   G5           A5 E5         D5 E5       D5
E|------------------------------------------|
B|------------------------------------------|
G|------------------------------------------|
D|-5--5---5--5--7--2----2--2--0--2--2--2--0-|
A|-5--5---5--5--7--2----2--2--0--2--2--2--0-|
E|-5--5---5--5--7--2----2--2--0--2--2--2--0-|

[Solo]

[Parte 1 de 6]

     H.A.  .
E|-----------------------------------------------------|
B|-----------------------------------------------------|
G|---------5b~~~~--------------------------------------|
D|---7b------------------------------------------------|
A|-----------------------------------------------------|
E|-----------------------------------------------------|
 
[Parte 2 de 6]
E|-----------------------------------------------------|
B|-12-----12--13--12-13h15----15b17--15----------------|
G|-----------------------------------------------------|
D|-----------------------------------------------------|
A|-----------------------------------------------------|
E|-----------------------------------------------------|

[Parte 3 de 6]
E|-----------------------------------------------------|
B|------------7h8p7-8h10--8--7-------------------------|
G|-7h9--9--9-------------------9--7--9--9--9/11--9--7--|
D|------x----------------------------------------------|
A|-----------------------------------------------------|
E|-----------------------------------------------------|
 
[Parte 4 de 6]
E|-----------------------------------------------------|
B|-----------------------------------------------------|
G|----7------------------------------------------------|
D|-9---------------------------------------------------|
A|-----------------------------------------------------|
E|-----------------------------------------------------|
 
[Parte 5 de 6]

   H.A.   .     .
E|-----------------------------------------------------|
B|-----------------------------------------------------|
G|------------------------------------7~---------------|
D|--------------------5-7-9------10--------------------|
A|-9b10---7b9---5b7------------------------------------|
E|-----------------------------------------------------|

[Parte 6 de 6]
E|-15-15-15---14----14-15--14--12-12h14-14/15----------|
B|---------------------------------------------17~-----|
G|-----------------------------------------------------|
D|-----------------------------------------------------|
A|-----------------------------------------------------|
E|-----------------------------------------------------|
 
[Refrão Final]

(Riff 5)
 
Eu quero é ver o oco
Eu quero é ver o oco

[Final]

   D5
E|------------------------------------------|
B|------------------------------------------|
G|------------------------------------------|
D|-0----------------------------------------|
A|-0----------------------------------------|
E|-0----------------------------------------|
00:00 / 00:00
Other videos of this song
Repeat
Other videos of this song
Composed by Canisso / Digão / Rodolfo
2.417 views
    • ½ Tone
    • A
    • Bb
    • B
    • C
    • Db
    • D
    • Eb
    • E
    • F
    • F#
    • G
    • Ab
  • Add to list
    00:00 / 00:00
    Chapters
    • Apresentação
    • Tocando a Música
    • Acordes da Introdução
    • Ensinando Introdução
    • Acordes da Primeira Parte
    • Ensinando Primeira Parte
    • Acorde do Refrão
    • Ensinando o Refrão
    • Ensinando Passagem do Solo
    • Ensinando Base do Solo
    • Ensinando Solo
    • Tocando Improviso
    • Dicas Solo Improvisado
    • Encerramento
    OK