Cifra Club

Gordelícia

Raimundos

Tab de bajo: Principal
Tom: C
Afinação: Eb Ab Db Gb

1a parte intrp:

G|---------------------------------------------------------------|
D|---------------------------------------------------------------|
A|-------------------------------0-0-0-0-0-0-0-3----3--2--0------|
E|-0-0-0-0-0-0-0-3-3-3-3-3-3-3-3---------------------------------|

G|---------------------------------------------------------------|
D|---------------------------------------------------------------|
A|-------------------------------0-0-0-0-0-0-0-0-2-2-2-2-2-2-2-2-|
E|-0-0-0-0-0-0-0-3-3-3-3-3-3-3-3---------------------------------|

2a parte intro

G|---------------------|
D|---------------------|  3 vezes
A|-4-0-4-------------2-|
E|-------2-2-2-2---2---|

G|---------------------|
D|-------2-------------|  1 vez
A|-4-0-4---2-----------|
E|---------------------|

Verso e ponte para o refrão:

G|--------------------------------|
D|---------5---5---7---7----------|  4 vezes
A|-7---7-----5-------7-----3---3--|
E|---7-----------------------3----|

Refrão:

G|---------------------------------------------------|---------------------------------------------------|
D|---------------------------------------------------|--------------2--2-2--2-2--------------1--1-1--1-1-| 2 vezes
A|--------------------------2--2-2--2-2--------------|---------------------------2--2-2--2-2-------------|
E|-4--4-4--4-4--0--0-0--0-0-------------2--2----3--3-|-4--4-4--4-4---------------------------------------|

Repete Verso e Ponte pro refrão:


Refrão


Ponte pro solo

G|-----------------------------|
D|-----------------------------| 4 vezes
A|-4-0-4-0---------------------|
E|---------2-2-2-2-5-5-2-2-5-5-|

Durante o solo de sopro, faz a mesma coisa do refrão (2 vezes)

Refrão final (sobe 1 tom e meio)

G|---------------------------------------------------|---------------------------------------------------|
D|---------------------------------------------------|--------------5--5-5--5-5--------------4--4-4--4-4-|
A|--------------------------5--5-5--5-5--------------|---------------------------5--5-5--5-5-------------|
E|-7--7-7--7-7--3--3-3--3-3-------------5--5----6--6-|-7--7-7--7-7---------------------------------------|

Ao vivo, o Marquim faz o solo e depois do solo o Mestre Canisso e o Digão eo Marquim fazem um baguio assim:(obs:menos o Caio)

G|------------------------------|
D|------------------------------| 4 vezes
A|-4-0-4-0-------------0-2-4----|
E|---------2-2-2-2------------2|
00:00 / 00:00
Otros videos de esta canción
Repetir
Otros videos de esta canción
Composición de Raimundos
Colaboración y revisión:
  • luccas henrique
  • Fernando Motta
5 vistas

0 comentarios

Ver todos los comentarios
00:00 / 00:00
OK