Cifra Club

Jaws

Raimundos

Cifrado: Principal (guitarra y guitarra eléctrica)
Acompaña nuestras novedades de Cifra Club en español.
¡Sigue nuestro perfil en Instagram!
tono: Dm (con acordes en la forma de Ebm) Afinación: Eb Ab Db Gb Bb Eb
(intro)

Eb|-------------------------------------------------------------------------------------------
Bb|-------------------------------------------------------------------------------------------
Gb|-------------------------------------------------------------------------------------------
Db|-0-0-0-3-0-8-8-8-10-8-7-7-7-8-7-3-0-0-0-3-0-0-0-3-0-8-8-8-10-8-7-7-7-7-5-7-7-7-7-----------
Ab|-0-0-0-3-0-8-8-8-10-8-7-7-7-8-7-3-0-0-0-3-0-0-0-3-0-8-8-8-10-8-7-7-7-7-5-7-7-7-7-~5--------
Db|-0-0-0-3-0-8-8-8-10-8-7-7-7-8-7-3-0-0-0-3-0-0-0-3-0-8-8-8-10-8-7-7-7-7-5-7-7-7-7-----------

Eb|-------------------------------------------------------------------------------------------  
Bb|-------------------------------------------------------------------------------------------  
Gb|-------------------------------------------------------------------------------------------             (2x)
Db|-0x-0x-0x-0x-0x-0x-0x-0x-0x-0x-0x-0x-0x-0x-0x-0x-3x-3x-3x-3x-3x-3x-3x-3x-5x-5x-5x-5-6-5----
Ab|-0x-0x-0x-0x-0x-0x-0x-0x-0x-0x-0x-0x-0x-0x-0x-0x-3x-3x-3x-3x-3x-3x-3x-3x-5x-5x-5x-5-6-5----
Db|-0x-0x-0x-0x-0x-0x-0x-0x-0x-0x-0x-0x-0x-0x-0x-0x-3x-3x-3x-3x-3x-3x-3x-3x-5x-5x-5x-5-6-5----

Eb|-------------------------------------------------------------
Bb|-------------------------------------------------------------
Gb|-------------------------------------------------------------      (2x)
dg|-0-0-0-0-0-0-0-0-0-0-0-0-0-0-0-0-0-0-0-0-0-0-0-0-0-1*--------
Ab|-0-0-0-0-0-0-0-0-0-0-0-0-0-0-0-0-0-0-0-0-0-0-0-0-0-1*--------
Db|-0-0-0-0-0-0-0-0-0-0-0-0-0-0-0-0-0-0-0-0-0-0-0-0-0-1*--------

Eb|-------------------------------------------------------------
Bb|-------------------------------------------------------------
Gb|-------------------------------------------------------------
Db|-3x-3x-3x-3x-2x-2x-2x-2x-2x-3x-3x-3x-3x-3x-3x-3x-3x-3x-3x-3x-
Ab|-3x-3x-3x-3x-2x-2x-2x-2x-2x-3x-3x-3x-3x-3x-3x-3x-3x-3x-3x-3x-
Db|-3x-3x-3x-3x-2x-2x-2x-2x-2x-3x-3x-3x-3x-3x-3x-3x-3x-3x-3x-3x-

Eb|-------------------------------------------------------------
Bb|-------------------------------------------------------------
Gb|-------------------------------------------------------------
Db|3x-3x-3x-3x-3x-0x-3x-0x-3x-0x-3x-0x-3x-0x-3x-0x-3x-0-3-0-3---
Ab|3x-3x-3x-3x-3x-0x-3x-0x-3x-0x-3x-0x-3x-0x-3x-0x-3x-0-3-0-3---
Db|3x-3x-3x-3x-3x-0x-3x-0x-3x-0x-3x-0x-3x-0x-3x-0x-3x-0-3-0-3---

Eb|-----------------------------
Bb|-1-1-1-1-1-1-3-3-------------
Gb|-2-2-2-2------2-2------------      (2x)
dg|-2-2-2-2-2-2-----------------
Ab|-----------------------------
Db|-----------------------------

Eb|----------------------------------------------------------
Bb|----------------------------------------------------------
Gb|----------------------------------------------------------         (2x)
dg|-0-0-0-0-0-0-0-0-0-0-0-0-0-0-0-0-0-0-0-0-0-0-0-0-0-1*-----
Ab|-0-0-0-0-0-0-0-0-0-0-0-0-0-0-0-0-0-0-0-0-0-0-0-0-0-1*-----
Db|-0-0-0-0-0-0-0-0-0-0-0-0-0-0-0-0-0-0-0-0-0-0-0-0-0-1*-----

Eb|----------------------------------------------
Bb|----------------------------------------------
Gb|----------------------------------------------
Db|-3x-3x-3x-3x-3x-3x-3x-3x-3x-3x-3x-3x-3x-3x-3x-
Ab|-3x-3x-3x-3x-3x-3x-3x-3x-3x-3x-3x-3x-3x-3x-3x-
Db|-3x-3x-3x-3x-3x-3x-3x-3x-3x-3x-3x-3x-3x-3x-3x-

-------------------------------------------------
-------------------------------------------------
-------------------------------------------------
3x-0x-3x-0x-3x-0x-3x-0x-3x-0x-3x-0x-3x-0-3-0-3---
3x-0x-3x-0x-3x-0x-3x-0x-3x-0x-3x-0x-3x-0-3-0-3---
3x-0x-3x-0x-3x-0x-3x-0x-3x-0x-3x-0x-3x-0-3-0-3---

Eb|-------------------------
Bb|-1-1-1-1-1-1-3-3---------
Gb|-2-2-2-2------2-2--------                     (2x)
dg|-2-2-2-2-2-2-------------
Ab|-------------------------
Db|-------------------------

Eb|----------------------------------------------------------
Bb|----------------------------------------------------------
Gb|----------------------------------------------------------         (4x)
dg|-0-0-0-0-0-0-0-0-0-0-0-0-0-0-0-0-0-0-0-0-0-0-0-0-0-1*-----
Ab|-0-0-0-0-0-0-0-0-0-0-0-0-0-0-0-0-0-0-0-0-0-0-0-0-0-1*-----
Db|-0-0-0-0-0-0-0-0-0-0-0-0-0-0-0-0-0-0-0-0-0-0-0-0-0-1*-----

Eb|----------------------------------------------------------
Bb|----------------------------------------------------------
Gb|----------------------------------------------------------         (2x)
dg|-0-6-0-6-5-0-6-0-6-5-0-6-0-6-5-0-6-0-6x-5x-3x-5x-0x-------
Ab|-0-6-0-6-5-0-6-0-6-5-0-6-0-6-5-0-6-0-6x-5x-3x-5x-0x-------
Db|-0-6-0-6-5-0-6-0-6-5-0-6-0-6-5-0-6-0-6x-5x-3x-5x-0x-------

Eb|------------------------------------------------------------------------------------------------
Bb|------------------------------------------------------------------------------------------------
Gb|------------------------------------------------------------------------------------------------   (2x)
Db|-3x-0x-1x-2x-3x-0x-1x-2x-3x-0x-1x-2x-3x-4x-5x-6x-3x-0x-1x-2x-3x-0x-1x-2x-3x-0x-1x-2x-3x-4x-5x-6x
Ab|-3x-0x-1x-2x-3x-0x-1x-2x-3x-0x-1x-2x-3x-4x-5x-6x-3x-0x-1x-2x-3x-0x-1x-2x-3x-0x-1x-2x-3x-4x-5x-6x
Db|-3x-0x-1x-2x-3x-0x-1x-2x-3x-0x-1x-2x-3x-4x-5x-6x-3x-0x-1x-2x-3x-0x-1x-2x-3x-0x-1x-2x-3x-4x-5x-6x

Eb|---------------------------------------------------------------------------
Bb|---------------------------------------------------------------------------
Gb|---------------------------------------------------------------------------
Db|-3-0-1-2-3-0-1-2-3-0-1-2-3-4-5-6-3-0-1-2-3-0-1-2-3-0-1-2-3-4-5-6-7*--------
Ab|-3-0-1-2-3-0-1-2-3-0-1-2-3-4-5-6-3-0-1-2-3-0-1-2-3-0-1-2-3-4-5-6-7*--------
Db|-3-0-1-2-3-0-1-2-3-0-1-2-3-4-5-6-3-0-1-2-3-0-1-2-3-0-1-2-3-4-5-6-7*--------

(solo)
Eb|---------------------------------------------------------------------------
Bb|---------------------------------------------------------------------------        
Gb|---------------------------------------------------------------------------       
Db|-7-7-7-5-5-7-7-7-5-5-5-3-3-5-5-5-3-7-7-7-5-5-7-7-7-5-5-5-5-5-3-3-5-5-5-3-3-
Ab|-5-5-5-3-3-5-5-5-5-5-5-3-3-5-5-5-3-5-5-5-3-3-5-5-5-3-3-5-5-5-3-3-5-5-5-3-3-
Db|---------------------5-5-5-3-3-5-5-5-3-----------------5-5-5-3-3-5-5-5-3-3-
Composición de Denis Porto / Digão
Colaboración y revisión:
  • Cássio Ferreira
57 vistas
    • ½ Tono
    • Am
    • Bbm
    • Bm
    • Cm
    • C#m
    • Dm
    • Ebm
    • Em
    • Fm
    • F#m
    • Gm
    • G#m
  • Agregar a la lista

    0 comentarios

    Ver todos los comentarios

    ¿Lograste tocar?

    4 Tocaron 0 Aún no

    ¡Graba un video tocando Jaws y envíanoslo!

    00:00 / 00:00
    Outros vídeos desta música
    Repetir Calidad Automático
    Outros vídeos desta música
    00:00 / 00:00
    Automático
    OK