Cifra Club

O Pão da Minha Prima

Raimundos

Cifrado: Original (guitarra y guitarra eléctrica)
tono: A
   G#5 A5             G#5 A5           G#5 A5
E|-4/5-5-5-5-5-5-5--4/5-5-5-5-5-5-5--4/5-5-5-5-5-5-5--5-5-5-5-|
B|-4/5-5-5-5-5-5-5--4/5-5-5-5-5-5-5--4/5-5-5-5-5-5-5--5-5-5-5-|
G|-4/5-5-5-5-5-5-5--4/5-5-5-5-5-5-5--4/5-5-5-5-5-5-5--5-5-5-5-|
D|-6/7-7-7-7-7-7-7--6/7-7-7-7-7-7-7--6/7-7-7-7-7-7-7--7-7-7-7-|
A|-6/7-7-7-7-7-7-7--6/7-7-7-7-7-7-7--6/7-7-7-7-7-7-7--7-7-7-7-|
E|-4/5-5-5-5-5-5-5--4/5-5-5-5-5-5-5--4/5-5-5-5-5-5-5--0-5-0-5-|

      G#5/A
A minha prima arranjou um namorado
                             D5
O nome dele ela diz que é um pão
                                    A5
O chama de pão doce, o chama de pão fofo
                  E5     D#5/E        G#5/A
Eu chamo é de pão xoxo...  uh... é xoxo pão
                   D5                       A5
Aquele pão que ela chama é o pão duro do padeiro
                    E5                        A5
E eu já falei pra Maria que o namoro é sem futuro
                D5                           A5
Namorar com o padeiro se o padeiro é um pão duro
                  E    D#5/E          G#5/A
Eu chamo é de pão xoxo...  uh... é xoxo pão

E|-12-12-12-12-12-12-12-12-12-12-12-12-12-12-12-12--------------------------|
B|--------------------------------------------------------------------------|
G|--------------------------------------------------------------------------|
D|--------------------------------------------------------------------------|
A|--------------------------------------------------------------------------|
E|--------------------------------------------------------------------------|

Base Solo: D5  A5  E5  A5  D5  A5  E5  D#5/E  D#5/E  D#5/E  G#5/A  G#5/A  G#5/A  G#5/A

Solo:

E|-0---0-0--0-----------------------------------------------------------------------|
B|------------1--0------------------------------------------------------------------|
G|------------------2----2--2--2--2--1----------------------------------------------|
D|----------------------------------------4--2---2--2--2--2-------------------------|
A|-------------------------------------------------------------3--2-0--0--0-0-0-0-0-|
E|----------------------------------------------------------------------------------|

E|-0----0-0--0--------------------------------------------0----0--5--|
B|--------------1--0------------------------------------0---3--------|
G|--------------------2----2--2--2--2--1-----------0--2--------------|
D|----------------------------------------4--2--2--------------------|
A|-------------------------------------------------------------------|
E|-------------------------------------------------------------------|

E|-7--10---7--10---7--10---7--10---7--10---10/12-12~~--12/10-10h12p10--8--10-8~~~--|
B|---------------------------------------------------------------------------------|
G|---------------------------------------------------------------------------------|
D|---------------------------------------------------------------------------------|
A|---------------------------------------------------------------------------------|
E|---------------------------------------------------------------------------------|

                 D5                        A5
Mas o viado do padeiro é um cabra muito safado
                 E5                      A5
Pra comer a minha prima se fingiu de namorado
                      D5                     A5
E ainda forçou a coitadinha a soltar a tarraqueta
                    E  D#5/E            G#5/A
Eu disse não dê a buceta...  uh... pro xoxo pão.
00:00 / 00:00
Otros videos de esta canción
Repetir
Otros videos de esta canción
Composición de José Nilton / Joviniano
Colaboración y revisión:
  • Victor Augusto
143 vistas
    • ½ Tono
    • A
    • Bb
    • B
    • C
    • Db
    • D
    • Eb
    • E
    • F
    • F#
    • G
    • Ab
  • Agregar a la lista

    0 comentarios

    Ver todos los comentarios

    ¿Lograste tocar?

    0 Tocaron 0 Aún no

    ¡Graba un video tocando O Pão da Minha Prima y envíanoslo!

    00:00 / 00:00
    OK