Cifra Club

Working On Wood

Raised Fist

Cifrado: Principal (guitarra y guitarra eléctrica)
Selo Cifra Club: esta cifra foi revisada para atender aos critérios oficiais da nossa Equipe de Qualidade.
tono: D
Intro:
E|---------------------------------|
B|---------------------------------|
G|---------------------------------|
D|---------------------------------|
A|--0------------------0-----------|
E|--0-| Let Ring---------0-Let Ring--|




Chorus:
E|--------------------------------------------------------------------------|
B|--------------------------------------------------------------------------|
G|--------------------------------------------------------------------------|
D|--------------------------------------------------------------------------|
A|--5\---6-3-5-------5\----6-3---8-8-8-8-8-------5\---6-3-5---3-5\----6-3-8-|
E|--5\---6-3-5-------5\----6-3---8-8-8-8-8-------5\---6-3-5---3-5\----6-3-8-|




Verse:
E|------------------------------------------------------------------|
B|------------------------------------------------------------------|
G|------------------------------------------------------------------|
D|------------------------------------------------------------------|
A|--5-5-5-6-3-5-5-5-5-5-5--5-5-5-6-3-8-8-6-6-6-6----------------5\--|
E|--5-5-5-6-3-5-5-5-5-5-5--5-5-5-6-3-8-8-6-6-6-6---(| Repeat 2X)--5\--|




Chorus:
E|------------------------------------------|
B|------------------------------------------|
G|------------------------------------------|
D|------------------------------------------|
A|--5\---6-3-5-------5\----6-3---8-8-8-8-8--|
E|--5\---6-3-5-------5\----6-3---8-8-8-8-8--|


Verse:
E|------------------------------------------------------------|
B|------------------------------------------------------------|
G|------------------------------------------------------------|
D|------------------------------------------------------------| (Repeat 2X)
A|--5-5-5-6-3-5-5-5-5-5-5--5-5-5-6-3-8-8-6-6-6-6--------------|
E|--5-5-5-6-3-5-5-5-5-5-5--5-5-5-6-3-8-8-6-6-6-6--------------|


Bridge:
E|--------------------------------------------------------------|
B|--------------------------------------------------------------|
G|--------------------------------------------------------------|
D|--------------------------------------------------------------|
A|--5-5---------------5-5--x-x--x-x-----------------5-----------|
E|--5-5-(| Repeat 12X)--5-5--x-x--x-x-(Repeat 4X)-----5-Let Ring--|


Chorus:
E|--------------------------------------------------------------------------|
B|--------------------------------------------------------------------------|
G|--------------------------------------------------------------------------|
D|--------------------------------------------------------------------------|
A|--5\---6-3-5-------5\----6-3---8-8-8-8-8-------5\---6-3-5---3-5\----6-3-8-|
E|--5\---6-3-5-------5\----6-3---8-8-8-8-8-------5\---6-3-5---3-5\----6-3-8-|
Otros videos de esta canción
    4 exhibiciones
      • ½ Tono
      • A
      • Bb
      • B
      • C
      • Db
      • D
      • Eb
      • E
      • F
      • F#
      • G
      • Ab
    • Agregar a la lista

    Afinação da cifra

    Afinador online

      Ops (: Contenido disponible solo en portugués.
      OK