Cifra Club

Amerika

Rammstein

Cifrado: Principal (guitarra y guitarra eléctrica)
tono: A
Afinação: C G C F A D    

[Refrão]

 D5
We're all living in Amerika
  E5
Amerika, it's wunderbar
 D5                   F5   
We're all living in Amerika
  E5
Amerika
  G5
Amerika

 D5
We're all living in Amerika
  E5
Amerika, it's wunderbar
 D5                   F5   
We're all living in Amerika
  E5
Amerika
  G5
Amerika

[Primeira Parte]

   E5         D5 E5  F5     G5 D5        E5     D5  E5  F5 G5 D5 
E|----------------------------------------------------|
B|----------------------------------------------------|
G|-----4~-------------------------------------4~------|
D|---5--------------------------------------5---------|
A|-7--------------------------------------7-----------|
E|----------------------------------------------------|

 E5                                
Wenn getanzt wird will ich führen
D5    E5      F5                 G5  D5 
Auch wenn ihr euch alleine dreht
 E5
Lasst euch ein wenig kontrollieren
D5   E5   F5                      G5  D5 
Ich zeige euch wie's richtig geht

 E5
Wir bilden einen lieben Reigen
      F#5                 
Die Freiheit spielt auf allen Geigen
   E5                       G5
Musik kommt aus dem Weißen Haus
     F#5
Und vor Paris steht Mickey Mouse

[Refrão]

 D5
We're all living in Amerika
  E5
Amerika, it's wunderbar
 D5                   F5   
We're all living in Amerika
  E5
Amerika
  G5
Amerika

[Segunda Parte]

   E5         D5 E5  F5     G5 D5        E5     D5  E5  F5 G5 D5 
E|----------------------------------------------------|
B|----------------------------------------------------|
G|-----4~-------------------------------------4~------|
D|---5--------------------------------------5---------|
A|-7--------------------------------------7-----------|
E|----------------------------------------------------|

E5
Ich bin schritte dieser nützen
D5   E5                               G5  D5 
Und werde euch vor Fehltritt schützen
     E5
Und wer nicht tanzen will am schluss
 D5    E5                            G5  D5 
Weiss noch nicht dass er tanzen muss

E|----------------------------------------------------|
B|----------------------------------------------------|
G|-----4~-------------------------------------6~------|
D|---7--------------------------------------7---------|
A|-9--------------------------------------9-----------|
E|----------------------------------------------------|

 E5
Wir bilden einen lieben Reigen
     F#5                    
Ich werde euch die Richtung zeigen
     E5                   G5
Nach Afrika kommt Santa Claus
     F#5 
Und vor Paris steht Mickey Mouse

[Refrão]

 D5
We're all living in Amerika
  E5
Amerika, it's wunderbar
 D5                   F5   
We're all living in Amerika
  E5
Amerika
  G5
Amerika

 D5
We're all living in Amerika
 E5
Coca Cola, wunderbar
 D5                   F5   
We're all living in Amerika
  E5
Amerika
  G5
Amerika

Amerika

[Ponte]

  D5 E5                 G5 D5
This is not a love song
  D5 E5                 G5 D5
This is not a love song
D5 E5                         G5  D5
I don't sing my mother tongue
 D5   E5                    G5  D5
No, this is not a love song

[Solo] F5  A5  E5 
       F5  A5  E5 

[Ponte]
  
    E5                           G5   D5
E|----------------------------------------------------|
B|----------------------------------------------------|
G|----------------------------------------------------|
D|----------------------------------------------------|
A|----------------------------------------------------|
E|--0-2-2-2-2----0-2-2-2-2------/5----0---------------|

[Refrão]

 D5
We're all living in Amerika
  E5
Amerika, it's wunderbar
 D5                   F5   
We're all living in Amerika
  E5
Amerika
  G5
Amerika

 D5
We're all living in Amerika
 E5
Coca Cola, sometimes for
 D5                   F5   
We're all living in Amerika
  E5
Amerika
  G5
Amerika

Amerika

[Final] E5  G5  D5 
        E5  G5  D5 
  
    E5                                        G5   D5
E|----------------------------------------------------|
B|----------------------------------------------------|
G|----------------------------------------------------|
D|----------------------------------------------------|
A|----------------------------------------------------|
E|--0-2-2-2-2----0-2-2-2-2-----0-2-2-2-2------5/--0---|

    E5                                        G5   D5
E|----------------------------------------------------|
B|----------------------------------------------------|
G|----------------------------------------------------|
D|----------------------------------------------------|
A|----------------------------------------------------|
E|--0-2-2-2-2----0-2-2-2-2-----0-2-2-2-2------5/--0---|
Composición de Oliver Riedel / Paul Landers / Rammstein / Richard Z. Kruspe
Colaboración y revisión:
  • Getúlio Vasconcelos
  • jeferson luiz
2.544 vistas
    • ½ Tono
    • A
    • Bb
    • B
    • C
    • Db
    • D
    • Eb
    • E
    • F
    • F#
    • G
    • Ab
  • Agregar a la lista

    0 comentarios

    Ver todos los comentarios

    ¿Lograste tocar?

    11 Tocaron 2 Aún no

    ¡Graba un video tocando Amerika y envíanoslo!

    00:00 / 00:00
    Outros vídeos desta música
    Repetir Calidad Automático
    Outros vídeos desta música
    00:00 / 00:00
    Automático
    OK