Cifra Club

Amour

Rammstein

Cifrado: Principal (guitarra y guitarra eléctrica)
tono: F
TUNING: D-A-D-G-B-E

INTRO

E|---------------------------
B|---------------------------
G|--4----5--7---9----7--5-7--
D|----2-----------7----------
A|---------------------------
D|---------------------------

E|-----------------------------------------------------
B|-----------------------------------------------12~~--
G|--4----5--7---9-----11~----11-12-11--9----11---12~~--
D|----------------7------------------------------------
A|------------------------10-------------10------------
D|-----------------------------------------------------

KEYBOARD BEGINNS TO PLAY THAN(till 0:18)

Verse

E|-----------------------------------------------
B|-----------------------------------------------
G|---------------------------------------1-h-0---
D|------1-------1------------3--------1----------
A|---3-------3------3----1--------3--------------
D|-----------------------------------------------

E|-----------------------------------------------
B|-----------------------------------------------
G|---------------------------------------1-h-0---
D|------1-------1------------3--------1----------
A|---3-------3------3----1--------3--------------
D|-----------------------------------------------

E|-----------------------------------------------
B|-----------------------------------------------
G|---------------------------------------1-h-0---
D|------1-------1------------3--------1----------
A|---3-------3------3----1--------3--------------
D|-----------------------------------------------

E|-----------------------------------------------
B|-----------------------------------------------
G|-----------------------------------------------
D|------1-------1------------3-------------------
A|---3-------3------3----1-----------------------
D|-----------------------------------------------

E|-----------------------------------------------
B|-----------------------------------------------
G|---------------------------------------1-h-0---
D|------1-------1------------3--------1----------
A|---3-------3------3----1--------3--------------
D|-----------------------------------------------

E|-----------------------------------------------
B|-----------------------------------------------
G|---------------------------------------1-h-0---
D|------1-------1------------3--------1----------
A|---3-------3------3----1--------3--------------
D|-----------------------------------------------

E|-----------------------------------------------
B|-----------------------------------------------
G|---------------------------------------1-h-0---
D|------1-------1------------3--------1----------
A|---3-------3------3----1--------3--------------
D|-----------------------------------------------

E|-----------------------------------------------
B|-----------------------------------------------
G|---0----0--------1----1------------------------
D|-1----1----1---3----3----3--1------------------
A|-----------------------------------------------
D|-----------------------------------------------


Chorus without guitar

Second Verse

E|-----------------------------------------------
B|-----------------------------------------------
G|---------------------------------------1-h-0---
D|------1-------1------------3--------1----------
A|---3-------3------3----1--------3--------------
D|-----------------------------------------------

E|-----------------------------------------------
B|-----------------------------------------------
G|---------------------------------------1-h-0---
D|------1-------1------------3--------1----------
A|---3-------3------3----1--------3--------------
D|-----------------------------------------------

E|-----------------------------------------------
B|-----------------------------------------------
G|---------------------------------------1-h-0---
D|------1-------1------------3--------1----------
A|---3-------3------3----1--------3--------------
D|-----------------------------------------------

E|-----------------------------------------------
B|-----------------------------------------------
G|-----------------------------------------------
D|------1-------1------------3-------------------
A|---3-------3------3----1-----------------------
D|-----------------------------------------------

E|-----------------------------------------------
B|-----------------------------------------------
G|---------------------------------------1-h-0---
D|------1-------1------------3--------1----------
A|---3-------3------3----1--------3--------------
D|-----------------------------------------------

E|-----------------------------------------------
B|-----------------------------------------------
G|---------------------------------------1-h-0---
D|------1-------1------------3--------1----------
A|---3-------3------3----1--------3--------------
D|-----------------------------------------------

E|-----------------------------------------------
B|-----------------------------------------------
G|---------------------------------------1-h-0---
D|------1-------1------------3--------1----------
A|---3-------3------3----1--------3--------------
D|-----------------------------------------------

E|-----------------------------------------------
B|-----------------------------------------------
G|---0----0--------1----1------------------------
D|-1----1----1---3----3----3--1------------------
A|-----------------------------------------------
D|-----------------------------------------------


Second Chorus (you can use the intro) now with guitar play this here!

E|-----------------------------------------------
B|-----------------------------------------------
G|-----------------------------------------------
D|--10-----3-------------------------------------
A|--10-----3-------------------------------------
D|--10-----3-------------------------------------

E|-----------------------------------------------
B|-----------------------------------------------
G|-----------------------------------------------
D|--10-----3-------------------------------------
A|--10-----3-------------------------------------
D|--10-----3-------------------------------------

E|-----------------------------------------------
B|-----------------------------------------------
G|-----------------------------------------------
D|--5-----3--------------------------------------
A|--5-----3--------------------------------------
D|--5-----3--------------------------------------

E|-----------------------------------------------
B|-----------------------------------------------
G|-----------------------------------------------
D|--5-----6--------------------------------------
A|--5-----6--------------------------------------
D|--5-----6--------------------------------------


Part II of the first Chorus ... 2:18

E|-----------------------------------------------
B|-----------------------------------------------
G|-----------------------------------------------
D|--10-----6-------------------------------------
A|--10-----6-------------------------------------
D|--10-----6-------------------------------------

E|-----------------------------------------------
B|-----------------------------------------------
G|-----------------------------------------------
D|--5-----3--------------------------------------
A|--5-----3--------------------------------------
D|--5-----3--------------------------------------

E|-----------------------------------------------
B|-----------------------------------------------
G|-----------------------------------------------
D|--1-----3--------------------------------------
A|--1-----3--------------------------------------
D|--1-----3--------------------------------------

E|-----------------------------------------------
B|-----------------------------------------------
G|-----------------------------------------------
D|--5-----6--------------------------------------
A|--5-----6--------------------------------------
D|--5-----6--------------------------------------

THIRD VERSE

E|-----------------------------------------------
B|-----------------------------------------------
G|---------------------------------------1-h-0---
D|------1-------1------------3--------1----------
A|---3-------3------3----1--------3--------------
D|-----------------------------------------------

E|-----------------------------------------------
B|-----------------------------------------------
G|-----------------------------------------------
D|------1-------1------------3-------------------
A|---3-------3------3----1-----------------------
D|-----------------------------------------------

E|-----------------------------------------------
B|-----------------------------------------------
G|---------------------------------------1-h-0---
D|------1-------1------------3--------1----------
A|---3-------3------3----1--------3--------------
D|-----------------------------------------------

E|-----------------------------------------------
B|-----------------------------------------------
G|---------------------------------------1-h-0---
D|------1-------1------------3--------1----------
A|---3-------3------3----1--------3--------------
D|-----------------------------------------------

E|-----------------------------------------------
B|-----------------------------------------------
G|---------------------------------------1-h-0---
D|------1-------1------------3--------1----------
A|---3-------3------3----1--------3--------------
D|-----------------------------------------------

E|-----------------------------------------------
B|-----------------------------------------------
G|---0----0--------1----1------------------------
D|-1----1----1---3----3----3--1------------------
A|-----------------------------------------------
D|-----------------------------------------------

Third Chorus

E|-----------------------------------------------
B|-----------------------------------------------
G|-----------------------------------------------
D|--10-----6-------------------------------------
A|--10-----6-------------------------------------
D|--10-----6-------------------------------------

E|-----------------------------------------------
B|-----------------------------------------------
G|-----------------------------------------------
D|--5-----3--------------------------------------
A|--5-----3--------------------------------------
D|--5-----3--------------------------------------

E|-----------------------------------------------
B|-----------------------------------------------
G|-----------------------------------------------
D|--1-----3--------------------------------------
A|--1-----3--------------------------------------
D|--1-----3--------------------------------------

E|-----------------------------------------------
B|-----------------------------------------------
G|-----------------------------------------------
D|--5-----6--------------------------------------
A|--5-----6--------------------------------------
D|--5-----6--------------------------------------

3:41 ("Die Liebe ist ein wilde Tier ...")

E|-----------------------------------------------
B|-----------------------------------------------
G|-----------------------------------------------
D|--10-----6-------------------------------------
A|--10-----6-------------------------------------
D|--10-----6-------------------------------------

E|-----------------------------------------------
B|-----------------------------------------------
G|-----------------------------------------------
D|--5-----3--------------------------------------
A|--5-----3--------------------------------------
D|--5-----3--------------------------------------

E|-----------------------------------------------
B|-----------------------------------------------
G|-----------------------------------------------
D|--1-----3--------------------------------------
A|--1-----3--------------------------------------
D|--1-----3--------------------------------------

E|-----------------------------------------------
B|-----------------------------------------------
G|-----------------------------------------------
D|--5-----6--------------------------------------
A|--5-----6--------------------------------------
D|--5-----6--------------------------------------


SOLO! 4:00

E|------------------------------------------------
B|-12~--13~---------------------------------------
G|--------------------12-13~~~12~~----------------
D|----------13-12-10~~----------------------------
A|------------------------------------------------
D|------------------------------------------------

E|------------------------------------------------
B|-12~--13~---------------------------------------
G|------------------------------------------------
D|----------13-12-10~~12-13~~~12~~----------------
A|------------------------------------------------
D|------------------------------------------------

E|------------------------------------------------
B|-12~--13~-----------13-15~~13~~--15~~16~~~15~~--
G|------------------------------------------------
D|----------13-12-10~~----------------------------
A|------------------------------------------------
D|------------------------------------------------

E|-15~~16~~~15~~---20~~20~~-----------------------
B|------------------------------------------------
G|------------------------------------------------
D|------------------------------------------------
A|------------------------------------------------
D|------------------------------------------------

Chorus

E|-----------------------------------------------
B|-----------------------------------------------
G|-----------------------------------------------
D|--10-----6-------------------------------------
A|--10-----6-------------------------------------
D|--10-----6-------------------------------------

E|-----------------------------------------------
B|-----------------------------------------------
G|-----------------------------------------------
D|--5-----3--------------------------------------
A|--5-----3--------------------------------------
D|--5-----3--------------------------------------

E|-----------------------------------------------
B|-----------------------------------------------
G|-----------------------------------------------
D|--1-----3--------------------------------------
A|--1-----3--------------------------------------
D|--1-----3--------------------------------------

E|-----------------------------------------------
B|-----------------------------------------------
G|-----------------------------------------------
D|--5-----6--------------------------------------
A|--5-----6--------------------------------------
D|--5-----6--------------------------------------

RIFF ("Bitte bitte geb mir Gift...")



E|-----------------------------------------------
B|-----------------------------------------------
G|-----------------------------------------------
D|--10--10--10--10----9(10)-----9(10)------------
A|--10--10--10--10----9(10)-----9(10)------------
D|--10--10--10--10----9(10)-----9(10)------------

E|-----------------------------------------------
B|-----------------------------------------------
G|-----------------------------------------------
D|--10--10--10--10----9(10)-----9(10)------------
A|--10--10--10--10----9(10)-----9(10)------------
D|--10--10--10--10----9(10)-----9(10)------------

E|-----------------------------------------------
B|-----------------------------------------------
G|-----------------------------------------------
D|--10--10--10--10----9(10)------10--------------
A|--10--10--10--10----9(10)------10--------------
D|--10--10--10--10----9(10)------10--------------
Composición de Christian Doktor Lorenz / Christoph Doom Schneider / Paul Landers / Rammstein / Richard Z. Kruspe / Till Lindemann
Colaboración y revisión:
  • Vinicius Soader
  • Rogério Costa
  • Matheus Magno
2.078 vistas
    • ½ Tono
    • A
    • Bb
    • B
    • C
    • Db
    • D
    • Eb
    • E
    • F
    • F#
    • G
    • Ab
  • Agregar a la lista

    0 comentarios

    Ver todos los comentarios

    ¿Lograste tocar?

    5 Tocaron 0 Aún no

    ¡Graba un video tocando Amour y envíanoslo!

    00:00 / 00:00
    Outros vídeos desta música
    Repetir Calidad Automático
    Outros vídeos desta música
    00:00 / 00:00
    Automático
    OK