Cifra Club

Aprenda

Ausländer

Rammstein

Tablatura: Principal (guitarra)
Tom: G
[Intro]

E|---------------------------------------------------------------------------|
B|---------------------------------------------------------------------------|
G|---------------------------------------------------------------------------|
D|---7-7-7-7-7-7--7-7-7\5-5-5--5-5-5\3-3-3--3-3-3-2-7------------------------|
A|---7-7-7-7-7-7--7-7-7\5-5-5--5-5-5\3-3-3--3-3-3-2-7------------------------|
E|---7-7-7-7-7-7--7-7-7\5-5-5--5-5-5\3-3-3--3-3-3-2-7------------------------|

E|---------------------------------------------------------------------------|
B|---------------------------------------------------------------------------|
G|---------------------------------------------------------------------------|
D|---7-7-7-7-7-7--7-7-7\5-5-5--5-5-5\3-3-3--3-3-3-2-7-------7-7-7-7-7-7------|
A|---7-7-7-7-7-7--7-7-7\5-5-5--5-5-5\3-3-3--3-3-3-2-7-------7-7-7-7-7-7------|
E|---7-7-7-7-7-7--7-7-7\5-5-5--5-5-5\3-3-3--3-3-3-2-7-------7-7-7-7-7-7------|

[Pré-Refrão]

E|---------------------------------------------------------------------------|
B|---------------------------------------------------------------------------|
G|---------------------------------------------------------------------------|
D|--10-10-10-10-9-9--------12-12-12-12-9-9--------10-10-10-10-9-9------------|
A|---------------------------------------------------------------------------|
E|---------------------------------------------------------------------------|

E|---------------------------------------------------------------------------|
B|---------------------------------------------------------------------------|
G|---------------------------------------------------------------------------|
D|--14-14-14-14-9-9----------14-14-14-14-13-13-----------13~-----13~---------|
A|---------------------------------------------------------------------------|
E|---------------------------------------------------------------------------|

[Refrão]

E|---------------------------------------------------------------------------|
B|---------------------------------------------------------------------------|
G|---------------------------------------------------------------------------|
D|---7-7-7-7-7-7--7-7-7\5-5-5--5-5-5\3-3-3--3-3-3-2-7------------------------|
A|---7-7-7-7-7-7--7-7-7\5-5-5--5-5-5\3-3-3--3-3-3-2-7------------------------|
E|---7-7-7-7-7-7--7-7-7\5-5-5--5-5-5\3-3-3--3-3-3-2-7------------------------|

E|---------------------------------------------------------------------------|
B|---------------------------------------------------------------------------|
G|---------------------------------------------------------------------------|
D|---7-7-7-7-7-7--7-7-7\5-5-5--5-5-5\3-3-3--3-3-3-2-7------------------------|
A|---7-7-7-7-7-7--7-7-7\5-5-5--5-5-5\3-3-3--3-3-3-2-7------------------------|
E|---7-7-7-7-7-7--7-7-7\5-5-5--5-5-5\3-3-3--3-3-3-2-7------------------------|

E|---------------------------------------------------------------------------|
B|---------------------------------------------------------------------------|
G|---------------------------------------------------------------------------|
D|---7-7-7-7-7-7--7-7-7\5-5-5--5-5-5\3-3-3--3-3-3-2-7------------------------|
A|---7-7-7-7-7-7--7-7-7\5-5-5--5-5-5\3-3-3--3-3-3-2-7------------------------|
E|---7-7-7-7-7-7--7-7-7\5-5-5--5-5-5\3-3-3--3-3-3-2-7------------------------|

E|---------------------------------------------------------------------------|
B|---------------------------------------------------------------------------|
G|---------------------------------------------------------------------------|
D|---7-7-7-7-7-7--7-7-7\5-5-5--5-5-5\3-3-3--3-3-3-2-7-------7-7-7-7-7-7------|
A|---7-7-7-7-7-7--7-7-7\5-5-5--5-5-5\3-3-3--3-3-3-2-7-------7-7-7-7-7-7------|
E|---7-7-7-7-7-7--7-7-7\5-5-5--5-5-5\3-3-3--3-3-3-2-7-------7-7-7-7-7-7------|

[Pré-Refrão] 

E|---------------------------------------------------------------------------|
B|---------------------------------------------------------------------------|
G|---------------------------------------------------------------------------|
D|--10-10-10-10-9-9--------12-12-12-12-9-9--------10-10-10-10-9-9------------|
A|---------------------------------------------------------------------------|
E|---------------------------------------------------------------------------|

E|---------------------------------------------------------------------------|
B|---------------------------------------------------------------------------|
G|---------------------------------------------------------------------------|
D|--14-14-14-14-9-9----------14-14-14-14-13-13-----------13~-----13~---------|
A|---------------------------------------------------------------------------|
E|---------------------------------------------------------------------------|

[Refrão]

E|---------------------------------------------------------------------------|
B|---------------------------------------------------------------------------|
G|---------------------------------------------------------------------------|
D|---7-7-7-7-7-7--7-7-7\5-5-5--5-5-5\3-3-3--3-3-3-2-7------------------------|
A|---7-7-7-7-7-7--7-7-7\5-5-5--5-5-5\3-3-3--3-3-3-2-7------------------------|
E|---7-7-7-7-7-7--7-7-7\5-5-5--5-5-5\3-3-3--3-3-3-2-7------------------------|

E|---------------------------------------------------------------------------|
B|---------------------------------------------------------------------------|
G|---------------------------------------------------------------------------|
D|---7-7-7-7-7-7--7-7-7\5-5-5--5-5-5\3-3-3--3-3-3-2-7------------------------|
A|---7-7-7-7-7-7--7-7-7\5-5-5--5-5-5\3-3-3--3-3-3-2-7------------------------|
E|---7-7-7-7-7-7--7-7-7\5-5-5--5-5-5\3-3-3--3-3-3-2-7------------------------|

E|---------------------------------------------------------------------------|
B|---------------------------------------------------------------------------|
G|---------------------------------------------------------------------------|
D|---7-7-7-7-7-7--7-7-7\5-5-5--5-5-5\3-3-3--3-3-3-2-7------------------------|
A|---7-7-7-7-7-7--7-7-7\5-5-5--5-5-5\3-3-3--3-3-3-2-7------------------------|
E|---7-7-7-7-7-7--7-7-7\5-5-5--5-5-5\3-3-3--3-3-3-2-7------------------------|

E|---------------------------------------------------------------------------|
B|---------------------------------------------------------------------------|
G|---------------------------------------------------------------------------|
D|---7-7-7-7-7-7--7-7-7\5-5-5--5-5-5\3-3-3--3-3-3-2-7-------7-7-7-7-7-7------|
A|---7-7-7-7-7-7--7-7-7\5-5-5--5-5-5\3-3-3--3-3-3-2-7-------7-7-7-7-7-7------|
E|---7-7-7-7-7-7--7-7-7\5-5-5--5-5-5\3-3-3--3-3-3-2-7-------7-7-7-7-7-7------|
Compositor Rammstein
Colaboración y revision:
  • Wesley Ricce
12 reproducciones
    • ½ Tom
    • A
    • Bb
    • B
    • C
    • Db
    • D
    • Eb
    • E
    • F
    • F#
    • G
    • Ab
  • Adicionar à lista

    0 comentarios

    Mostrar mais comentários

    ¿Conseguiste tocar?

    0 Tocaron 0 Ainda não

    Grave um vídeo tocando Ausländer e mande pra gente!

    00:00 / 00:00
    outros vídeos desta música
    repetir qualidade Automático
    Outros vídeos desta música
    00:00 / 00:00
    Automático
    OK