Cifra Club

Bestrafe Mich

Rammstein

Tab de bajo: Versão 3
Tabbed by: CerealBoy (aka. dumbwench aka. Allan)

I read the other tab and realised it was NOTHING like that actual song... So here's how 
play it, it sounds pretty much right, might be a little in one or two places but I'm 90% 
this is how it goes...
I play a 5 string fretless in Standard Tuning (I hate having to retune) but you can 
transpose if you don't have a 5 string...
Doesn't use the G string so I won't bother writing it out


Rest Until Everyone Comes In (0:09)

Intro (x6)
D |0-----0-----0--|
A |---------------|
E |--0-3---0-3---3|
B |---------------|

Bridge (x2) (0:23)               * >>>     2nd Time Play:
D |-------------------------------------| |---------------|
A |-------------------------------------| |---------------|
E |2-2-0-0-0-2-2-0-0-0-2-2-0-0-0-3-0-0-0| |3-0-2-3-0-3-2-2|
B |-------------------------------------| |---------------|

Rest (0:33 until 0:37)

Verse (x4)

D |--------------------------------| Instead of 3-3 on the B string if you
A |--------------------------------| don't have one, you could mute the E
E |0-0-0-0-0-0-0-0-0-0-0-0-0-0-----| string instead
B |----------------------------3-3-|

Intro (x6) (0:56)

Bridge (x2 as Before) (1:10)

Verse (x4) (1:19)
On 4th time finish with 0 on E string instead of 3-3 on B string

Intro (x6) (1:38)
Small Rest (0:03)
Bridge (x2 As Before) (1:54)

Rest (2:03 to 2:36)
Intro (x12)

Outro (x ) (3:04)
D |-----------------------------------------------------------|
A |-----------------------------------------------------------|
E |2-2-0-0-0-2-2-0-0-0-2-2-0-0-0-2-2-0-0-0-3-3-2-2-2-3-3-2-2-2|
B |-----------------------------------------------------------|

D |-----------------------------------------------------------|
A |-----------------------------------------------------------|
E |5-5-3-3-3-5-5-3-3-3-3-3-2-2-2-3-3-2-2-2-2-2-0-0-0-2-2-0-0-0|
B |-----------------------------------------------------------|

D |-----------------------------------------------------------|
A |-----------------------------------------------------------|
E |2-2-0-0-0-2-2-0-0-0-2-2-0-0-0-2-2-0-0-0-3-3-2-2-2-3-3-2-2-2|
B |-----------------------------------------------------------|

D |-----------------------------------------------------------|
A |-----------------------------------------------------------|
E |5-5-3-3-3-5-5-3-3-3-3-3-2-2-2-3-3-2-2-2-2-2-0-0-0-2-2-0-0-0|
B |-----------------------------------------------------------|

D |-------------------------|
A |------------------------3|
E |0-0-0-0-3-0-3-2-0-2-3-2--|
B |-------------------------|

Cheers, any questions comments etc. Email me: *
Composición de Rammstein
1 vistas

0 comentarios

Ver todos los comentarios

¿Lograste tocar?

0 Tocaron 0 Aún no

¡Graba un video tocando Bestrafe Mich y envíanoslo!

00:00 / 00:00
Outros vídeos desta música
Repetir Calidad Automático
Outros vídeos desta música
00:00 / 00:00
Automático
OK