Cifra Club

Feuer Und Wasser

Rammstein

Cifrado: Principal (guitarra y guitarra eléctrica)
Acompaña nuestras novedades de Cifra Club en español.
¡Sigue nuestro perfil en Instagram!
tono: C
D|---------------------------------------------------------------|
A|---------------------------------------------------------------|
F|---------------------------------------------------------------|
C|0---0---0---0---0---0---0---0---0---0---0---0---0---0---0---0--|
G|x-0---0---0---0-x-0---0---0---0-x-0---0---0---0-x-0---0---0---0|
C|0---------------0---------------0---------------0--------------|

D|-------------------|
A|-------------------|
F|-------------------| Repete isso 4 vezes.
C|3-----5-----7---7--|
G|--5-----7-----8---8|
C|-------------------|

Then:
D|-------------------------|
A|-------------------------|
F|-------------------------|
C|12------10-----8-----8---| 
G|---13------12----10----10|
C|-------------------------|

D|-------------------|
A|-------------------|
F|-------------------| Repete isso 4 vezes.
C|3-----5-----7---7--|
G|--5-----7-----8---8|
C|-------------------|

D|-------------------------|
A|-------------------------|
F|-------------------------|
C|12------10-----8-----8---| 
G|---13------12----10----10|
C|-------------------------|

D|--------------------------------|
A|--------------------------------|
F|--------------------------------|
C|0---0---0---0---0---0---0---0---|
G|x-0---0---0---0-x-0---0---0----0|
C|0---------------0---------------|

Clean Chorus:
D|-----------------------------------------------------------|
A|-----------------------------------------------------------|
F|-----------------------------------------------------------|
C|8----8----8----8----5----5----7----7-----0----0----0----0--|
G|--8----8----8----8----5----5----7----7-----0----0----0----0|
C|-----------------------------------------------------------|

D|------------------------------------------------------------|
A|------------------------------------------------------------|
F|------------------------------------------------------------|
C|10----10----10----10------8---8---8---8-----5---5----7---7--|
G|---10----10----10----10-----8---8---8---8-----5---5----7---7|
C|------------------------------------------------------------|

D|---------------------------------------------------|
A|---------------------------------------------------|
F|---------------------------------------------------|
C|3---3---/---7---7---/--12----12----/----10----10---|
G|--0---0------0---0--------10----10---------10----10|
C|---------------------------------------------------|

D|---------------------------------------------------------------------|
A|---------------------------------------------------------------------|
F|---------------------------------------------------------------------|
C|8---8---8---8-----5---5-----7---7-----0---0---0---0---0---0---0---0--|
G|--8---8---8---8-----5---5-----7---7-----0---0---0---0---0---0---0---0|
C|---------------------------------------------------------------------|

Chorus with distorsion!
D|-----------------------------------------------|
A|-----------------------------------------------|
F|-----------------------------------------------|
C|8-8-8-8-8-8-8-8-5-5-5-5-7-7-7-7-0-0-0-0-0-0-0-0|
G|8-8-8-8-8-8-8-8-5-5-5-5-7-7-7-7-0-0-0-0-0-0-0-0|
C|8-8-8-8-8-8-8-8-5-5-5-5-7-7-7-7-0-0-0-0-0-0-0-0|

D|-------------------------------------------------------|
A|-------------------------------------------------------|
F|-------------------------------------------------------|
C|10-10-10-10-10-10-10-10-8-8-8-8-8-8-8-8-5-5-5-5-7-7-7-7|
G|10-10-10-10-10-10-10-10-8-8-8-8-8-8-8-8-5-5-5-5-7-7-7-7|
C|10-10-10-10-10-10-10-10-8-8-8-8-8-8-8-8-5-5-5-5-7-7-7-7|

D|-----------------------------------------------|
A|-----------------------------------------------|
F|-----------------------------------------------|
C|8-8-8-8-8-8-8-8-5-5-5-5-7-7-7-7-0-0-0-0-0-0-0-0|
G|8-8-8-8-8-8-8-8-5-5-5-5-7-7-7-7-0-0-0-0-0-0-0-0|
C|8-8-8-8-8-8-8-8-5-5-5-5-7-7-7-7-0-0-0-0-0-0-0-0|

D|---------|
A|---------|
F|---------|
C|(0)---0-0|  repete 4 vezes
G|(0)---0-0|
C|(0)---0-0|

SOLO

D|---------------- 
A|---------------- 
F|-------15---14-- 
C|---------------- 
G|--12------------ 
C|---------------- 

D|--------------------------------------------12---13---12-- 
A|-------------------------------------15~------------------ 
F|---------------14---15---12~----14------------------------ 
C|--15~~---14p12-------------------------------------------- 
G|---------------------------------------------------------- 
C|---------------------------------------------------------- 

D|----------------------------------------15--13------12--13--17b18-- 
A|-------------------15---------------------------15----------------- 
F|---------------------------14--15--12------------------------------ 
C|------14---15--12------12------------------------------------------ 
G|--12--------------------------------------------------------------- 
C|------------------------------------------------------------------- 

D|--15--13--12----------------| 
A|--------------15---13b15~~--| 
F|----------------------------| 
C|----------------------------| 
G|----------------------------| 
C|----------------------------|

__________

Rythm guitar: Chorus.

D|-----------------------------------------------|
A|-----------------------------------------------|
F|-----------------------------------------------|
C|8-8-8-8-8-8-8-8-5-5-5-5-7-7-7-7-0-0-0-0-0-0-0-0|
G|8-8-8-8-8-8-8-8-5-5-5-5-7-7-7-7-0-0-0-0-0-0-0-0|
C|8-8-8-8-8-8-8-8-5-5-5-5-7-7-7-7-0-0-0-0-0-0-0-0|

D|-----------------------------------------------------------------------|
A|-----------------------------------------------------------------------|
F|-----------------------------------------------------------------------|
C|10-10-10-10-10-10-10-10-8-8-8-8-8-8-8-8-3-3-3-3-3-3-3-3-0-0-0-0-0-0-0-0|
G|10-10-10-10-10-10-10-10-8-8-8-8-8-8-8-8-3-3-3-3-3-3-3-3-0-0-0-0-0-0-0-0|
C|10-10-10-10-10-10-10-10-8-8-8-8-8-8-8-8-3-3-3-3-3-3-3-3-0-0-0-0-0-0-0-0|

D|------------------------------------------------------------|
A|------------------------------------------------------------|
F|------------------------------------------------------------|
C|10-10-10-10-10-10-10-10-8-8-8-8-8-8-8-8-5-5-5-5-7-7-7-7--(0)|
G|10-10-10-10-10-10-10-10-8-8-8-8-8-8-8-8-5-5-5-5-7-7-7-7--(0)|
C|10-10-10-10-10-10-10-10-8-8-8-8-8-8-8-8-5-5-5-5-7-7-7-7--(0)|

Composición de Rammstein
Colaboración y revisión:
  • Vítor Scarpato
749 vistas
    • ½ Tono
    • A
    • Bb
    • B
    • C
    • Db
    • D
    • Eb
    • E
    • F
    • F#
    • G
    • Ab
  • Agregar a la lista

    0 comentarios

    Ver todos los comentarios

    ¿Lograste tocar?

    6 Tocaron 0 Aún no

    ¡Graba un video tocando Feuer Und Wasser y envíanoslo!

    00:00 / 00:00
    Outros vídeos desta música
    Repetir Calidad Automático
    Outros vídeos desta música
    00:00 / 00:00
    Automático
    OK