Cifra Club

Haifisch

Rammstein

Cifrado: Principal (guitarra y guitarra eléctrica)
tono: D
(tuning D|A|D|G|B|E)

(chorus)
E |------------------------------------------------|
B |------------------------------------------------|
G |------------------------------------------------|
D |-2--2--2--2--2--2--2--2--(b9)-(b9)-(b9)-(b9)-7--7--7--7-|
A |-2--2--2--2--2--2--2--2--(b9)-(b9)-(b9)-(b9)-7--7--7--7-|
E |-2--2--2--2--2--2--2--2--(b9)-(b9)-(b9)-(b9)-7--7--7--7-|

E |--------------------------------------------------|
B |--------------------------------------------------|
G |--------------------------------------------------|
D |-2--2--2--2--2--2--2--2--(b9)-(b9)-(b9)-(b9)-7--7--7--0-7-|
A |-2--2--2--2--2--2--2--2--(b9)-(b9)-(b9)-(b9)-7--7--7--0-7-|
E |-2--2--2--2--2--2--2--2--(b9)-(b9)-(b9)-(b9)-7--7--7--0-7-|

(bridge)
This is relly a bitch to hear, and is played as Barré chords:
E |--7--7--7--7-|-7--7--7--7-|-7--7--7--7-|-7--7--7--7-|
B |--8--8--8--8-|-7--7--7--7-|-7--7--7--7-|-7--7--7--7-|
G|*-(b9)-(b9)-(b9)-(b9)|-(b9)-(b9)-(b9)-(b9)|-8--8--8--8-|-7--7--7--7-|
D|*-(b9)-(b9)-(b9)-(b9)|-(b9)-(b9)-(b9)-(b9)|-(b9)-(b9)-(b9)-(b9)|-(b9)-(b9)-(b9)-(b9)|
A |--7--7--7--7-|-7--7--7--7-|-(b9)-(b9)-(b9)-(b9)|-(b9)-(b9)-(b9)-(b9)|
D |-------------|------------|------------|------------|

E |-7--7--7--7-|-7--7--7--7-|-7--7--7--7-|-5--5--5--5--|
B |-8--8--8--8-|-7--7--7--7-|-7--7--7--7-|-5--5--5--5--|
G |-(b9)-(b9)-(b9)-(b9)|-(b9)-(b9)-(b9)-(b9)|-7--7--7--7-|-6--6--6--6-*|
D |-(b9)-(b9)-(b9)-(b9)|-(b9)-(b9)-(b9)-(b9)|-(b9)-(b9)-(b9)-(b9)|-7--7--7--7-*|
A |-7--7--7--7-|-7--7--7--7-|-(b9)-(b9)-(b9)-(b9)|-7--7--7--7--|
D |------------|------------|------------|-------------|

(3. Verse)
(also barré chords)
E |--7----7--5--5----3--0---|
B |--8----7--5--5----3--0---|
G|*-(b9)---7--6--5----4--0-*-|
D|*-(b9)---(b9)-7--7----5--2-*-|
A |--7----(b9)-7--7----5--2---|
D |---------------------2---|

(alternate chorus) (Also last chorus)
E |-------------------------------------------------|
B |-------------------------------------------------|
G|*------------------------------------------------|
D|*-2--2--2--2--2--2--2--2--(b9)-(b9)-(b9)-(b9)-7--7--7--7-|
A |--2--2--2--2--2--2--2--2--(b9)-(b9)-(b9)-(b9)-7--7--7--7-|
D |--2--2--2--2--2--2--2--2--(b9)-(b9)-(b9)-(b9)-7--7--7--7-|

E |---------------------------------------------------|
B |---------------------------------------------------|
G |--------------------------------------------------*|
D |-7--7--7--7--7--7--5--5--2--2--2--2--2--2---------*|
A |-7--7--7--7--7--7--5--5--2--2--2--2--2--2----------|
D |-7--7--7--7--7--7--5--5--2--2--2--2--2--2--2-0-2-0-|

(outro played on Spanish guitar)
E |-7-----7-----7---|-7-----7-----7---|-7-----7-----7---|--------------------|
B |---8-----8-----8-|---7-----7-----7-|---7-----7-----7-|-10-----10-----10---|
G |-----(b9)----(b9)----|-----(b9)----(b9)----|-----7-----7-----|----(b9)-----(b9)-----(b9)|
D |-----------------|-----------------|-----------------|------7------7------|
A |-----------------|-----------------|-----------------|--------------------|
D |-----------------|-----------------|-----------------|--------------------|

E |----------------------|--------------------|-----------------------|
B |-10------10------10---|-10------10-8-----(b9)|-5-----5-----5------5~-|
G |----(b9)------(b9)------(b9)|----(b9)--------(b9)----|---4-----4------4------|
D |------10------10------|------10--------(b9)--|-----5-----5-----------|
A |----------------------|--------------------|-----------------------|
D |----------------------|--------------------|-----------------------|
Composición de Christian Lorenz / Christoph Doom Schneider / Oliver Riedel / Paul Landers / Richard Z. Kruspe / Till Lindemann
Colaboración y revisión:
  • Lucas Bauer
949 vistas
  • Simplificar cifrado
    • ½ Tono
    • A
    • Bb
    • B
    • C
    • Db
    • D
    • Eb
    • E
    • F
    • F#
    • G
    • Ab
  • Agregar a la lista

    0 comentarios

    Ver todos los comentarios

    ¿Lograste tocar?

    2 Tocaron 0 Aún no

    ¡Graba un video tocando Haifisch y envíanoslo!

    00:00 / 00:00
    Outros vídeos desta música
    Repetir Calidad Automático
    Outros vídeos desta música
    00:00 / 00:00
    Automático
    OK