Cifra Club

Aprenda

Keine Lust

Rammstein

Tablatura: Principal (guitarra)
tono: G#
Afinação: Drop C

Intro

E|-----------------------------------------------------------------------------------------|
B|-----------------------------------------------------------------------------------------|
F|-------------------5/----------------------5/----------------------5/----------------8/5-|
C|-0-0-0-0-0-0-0--0--5/--0-0-0-0-0-0-0-0--0--5/--0-0-0-0-0-0-0-0--0--5/--0-0-0-0-0-0-0-----| 2x
G|-0-0-0-0-0-0-0--0------0-0-0-0-0-0-0-0--0------0-0-0-0-0-0-0-0--0------0-0-0-0-0-0-0-6/3-|
C|-0-0-0-0-0-0-0--0------0-0-0-0-0-0-0-0--0------0-0-0-0-0-0-0-0--0------0-0-0-0-0-0-0-----|
PM . . . . . . .  .    . . . . . . . .  .    . . . . . . . .  .    . . . . . . .

Letra 1ª parte

E|-------------------|
B|-------------------|
F|-------------------| (parte 1)
C|-0-0-0-0-0-0-0-----| 8x
G|-0-0-0-0-0-0-0-----|
C|-0-0-0-0-0-0-0-----|
PM . . . . . . .

E|--------------------------------------|
B|--------------------------------------|
F|--------------------------------------| (parte 2)
C|-0-0-0-0-0-0-------0-0-0-0-0-0-0------| 4x
G|-0-0-0-0-0-0-3--3--0-0-0-0-0-0-0-6--6-|
C|-0-0-0-0-0-0-------0-0-0-0-0-0-0------|
PM . . . . . .       . . . . . . .

Refrão 1ª parte

E|-------------------------------------------------------------------------------------------------|
B|-------------------------------------------------------------------------------------------------|
F|-------------------------------------------------------------------------------------------------|
C|-0-0-0-0-0-0-0-0-0-0-0-0-7-7-7-7-7-7-7-7-7-7-7-7-5-5-5-5-5-5-5-5-5-5-5-5-8-8-8-8-8-8-8-8-8-8-8-8-| 2x
G|-0-0-0-0-0-0-0-0-0-0-0-0-7-7-7-7-7-7-7-7-7-7-7-7-5-5-5-5-5-5-5-5-5-5-5-5-8-8-8-8-8-8-8-8-8-8-8-8-|
C|-0-0-0-0-0-0-0-0-0-0-0-0-7-7-7-7-7-7-7-7-7-7-7-7-5-5-5-5-5-5-5-5-5-5-5-5-8-8-8-8-8-8-8-8-8-8-8-8-|
PM . . . . . . . . . . . . . . . . . . . . . . . . . . . . . . . . . . . . . . . . . . . . . . . .

E|-----------------------------------------------------------------------------------------|
B|-----------------------------------------------------------------------------------------|
F|-------------------5/----------------------5/----------------------5/----------------8/5-|
C|-0-0-0-0-0-0-0--0--5/--0-0-0-0-0-0-0-0--0--5/--0-0-0-0-0-0-0-0--0--5/--0-0-0-0-0-0-0-----| 1x
G|-0-0-0-0-0-0-0--0------0-0-0-0-0-0-0-0--0------0-0-0-0-0-0-0-0--0------0-0-0-0-0-0-0-6/3-|
C|-0-0-0-0-0-0-0--0------0-0-0-0-0-0-0-0--0------0-0-0-0-0-0-0-0--0------0-0-0-0-0-0-0-----|
PM . . . . . . .  .    . . . . . . . .  .    . . . . . . . .  .    . . . . . . .

Letra 2ª parte

E|-------------------|
B|-------------------|
F|-------------------| (parte 1)
C|-0-0-0-0-0-0-0-----| 8x
G|-0-0-0-0-0-0-0-----|
C|-0-0-0-0-0-0-0-----|
PM . . . . . . .

E|--------------------------------------|
B|--------------------------------------|
F|--------------------------------------| (parte 2)
C|-0-0-0-0-0-0-------0-0-0-0-0-0-0------| 4x
G|-0-0-0-0-0-0-3--3--0-0-0-0-0-0-0-6--6-|
C|-0-0-0-0-0-0-------0-0-0-0-0-0-0------|
PM . . . . . .       . . . . . . .

Refrão 2ª parte

E|-------------------------------------------------------------------------------------------------|
B|-------------------------------------------------------------------------------------------------|
F|-------------------------------------------------------------------------------------------------| (parte 1)
C|-0-0-0-0-0-0-0-0-0-0-0-0-7-7-7-7-7-7-7-7-7-7-7-7-5-5-5-5-5-5-5-5-5-5-5-5-8-8-8-8-8-8-8-8-8-8-8-8-| 3x
G|-0-0-0-0-0-0-0-0-0-0-0-0-7-7-7-7-7-7-7-7-7-7-7-7-5-5-5-5-5-5-5-5-5-5-5-5-8-8-8-8-8-8-8-8-8-8-8-8-|
C|-0-0-0-0-0-0-0-0-0-0-0-0-7-7-7-7-7-7-7-7-7-7-7-7-5-5-5-5-5-5-5-5-5-5-5-5-8-8-8-8-8-8-8-8-8-8-8-8-|
PM . . . . . . . . . . . . . . . . . . . . . . . . . . . . . . . . . . . . . . . . . . . . . . . .

E|-------------------------------------------------------------------------------------------------|
B|-------------------------------------------------------------------------------------------------|
F|-------------------------------------------------------------------------------------------------| (parte 2)
C|-0-0-0-0-0-0-0-0-0-0-0-0-7-7-7-7-7-7-7-7-7-7-7-7-5-5-5-5-5-5-5-5-5-5-5-5-3-3-3-3-3-3-3-3-3-3-3-3-| 1x
G|-0-0-0-0-0-0-0-0-0-0-0-0-7-7-7-7-7-7-7-7-7-7-7-7-5-5-5-5-5-5-5-5-5-5-5-5-3-3-3-3-3-3-3-3-3-3-3-3-|
C|-0-0-0-0-0-0-0-0-0-0-0-0-7-7-7-7-7-7-7-7-7-7-7-7-5-5-5-5-5-5-5-5-5-5-5-5-3-3-3-3-3-3-3-3-3-3-3-3-|
PM . . . . . . . . . . . . . . . . . . . . . . . . . . . . . . . . . . . . . . . . . . . . . . . .

Letra 3ª parte

E|----------------------------------------|
B|----------------------------------------|
F|----------------------------------------|
C|-(0)-----(0)-----(7)-----(5)-----(8)----| 2x
G|-(0)-----(0)-----(7)-----(5)-----(8)----|
C|-(0)-----(0)-----(7)-----(5)-----(8)----|

E|--------------------|
B|--------------------|
F|--------------------|
C|-0-0-0-0-0-0-0------| 20x
G|-0-0-0-0-0-0-0------|
C|-0-0-0-0-0-0-0------|
PM . . . . . . .

E|----------------------------------------|
B|----------------------------------------|
F|----------------------------------------|
C|-(0)-----(0)-----(7)-----(5)-----(8)----| 3x
G|-(0)-----(0)-----(7)-----(5)-----(8)----|
C|-(0)-----(0)-----(7)-----(5)-----(8)----|

Toque o riff abaixo duas vezes para finalizar a música.

E|-----------------------------------------------------------------------------------------|
B|-----------------------------------------------------------------------------------------|
F|-------------------5/----------------------5/----------------------5/----------------8/5-|
C|-0-0-0-0-0-0-0--0--5/--0-0-0-0-0-0-0-0--0--5/--0-0-0-0-0-0-0-0--0--5/--0-0-0-0-0-0-0-----| 2x
G|-0-0-0-0-0-0-0--0------0-0-0-0-0-0-0-0--0------0-0-0-0-0-0-0-0--0------0-0-0-0-0-0-0-6/3-|
C|-0-0-0-0-0-0-0--0------0-0-0-0-0-0-0-0--0------0-0-0-0-0-0-0-0--0------0-0-0-0-0-0-0-----|
PM . . . . . . .  .    . . . . . . . .  .    . . . . . . . .  .    . . . . . . .
Composição de Oliver Riedel / Paul Landers / Rammstein / Richard Z. Kruspe
Colaboración y revision:
  • Alexandre
  • Eduardo Henrique
  • Bruno Vasconcellos
2.481 reproducciones
    • ½ Tono
    • A
    • Bb
    • B
    • C
    • Db
    • D
    • Eb
    • E
    • F
    • F#
    • G
    • Ab
  • Adicionar à lista

    0 comentarios

    Ver todos os comentários

    ¿Conseguiste tocar?

    9 Tocaram 1 Ainda não

    Grave um vídeo tocando Keine Lust e nos envie!

    00:00 / 00:00
    outros vídeos desta música
    repetir qualidade Automático
    Outros vídeos desta música
    00:00 / 00:00
    Automático
    OK