Cifra Club

Los

Rammstein

Cifrado: Principal (guitarra y guitarra eléctrica)
tono: Ab
Riff Principal:

D|-------------------------------------|  
A|-------------------------------------|  
F|*------------------------------------|  
C|*-0---1---3-----0-----1-----3-----0--|  
G|--5---1---3-----5-----1-----3-----5--|  
C|--0-0-1-0-3-0-0-0-0-0-1-0-0-3-0-0-0--|  
pm  . . . . . . . . . .  
 
D|-----------------------------------------|  
A|-----------------------------------------|  
F|----------------------------------------*|  
C|-0-----1-----3-----0-----1-----3/5-5-5/-*|  
G|-5-----1-----3-----5-----1-----3/5-5-5/--|  
C|-0-0-0-1-0-0-3-0-0-0-0-0-1-0-0-3/5-5-5/--|  
pm . . . . . . . . . .  
 
Refrão:
 
Varie um pouco 
D|------------------------------------|  
A|------3-----------------------------|  
F|*---------5------------------------*|  
C|*-----------3-----------3----------*|  
G|--5------------5--3-5-3----5-3-5----|  
C|------------------------------------|
(6x)
Composición de Oliver Riedel / Paul Landers / Rammstein / Richard Z. Kruspe
Colaboración y revisión:
  • Yair Merino
  • Vittor ricci
  • Matheus Magno
3.199 vistas
    • ½ Tono
    • A
    • Bb
    • B
    • C
    • Db
    • D
    • Eb
    • E
    • F
    • F#
    • G
    • Ab
  • Agregar a la lista

    0 comentarios

    Ver todos los comentarios

    ¿Lograste tocar?

    13 Tocaron 0 Aún no

    ¡Graba un video tocando Los y envíanoslo!

    00:00 / 00:00
    Outros vídeos desta música
    Repetir Calidad Automático
    Outros vídeos desta música
    00:00 / 00:00
    Automático
    OK