Cifra Club

Radio

Rammstein

Cifrado: Principal (guitarra y guitarra eléctrica)
tono: G
Afinação: C G C F A D

[Intro - 4x]

 |PM----------------------------|
D|------------------------------|
A|------------------------------|
D|------------------------------|
A|------------------------------|
G|------------------------------|
C|0-0-0-0-0-0-0-0-0-0-0-0-0-0-0-|

E|------------------------------|
B|------------------------------|
G|------------------------------|
D|-3-5-6-5----------------------|
A|-3-5-6-5----------------------|
E|-3-5-6-5----------------------|
  
 |PM----------------------------|                                                                            
D|------------------------------|
A|------------------------------|
D|------------------------------|
A|------------------------------|
G|------------------------------|
C|0-0-0-0-0-0-0-0-0-0-0-0-0-0-0-|

E|------------------------------|
B|------------------------------|
G|-10-10-10-10------------------|
D|-x--x--x--x-------------------|
A|-8--8--8--8-------------------|
E|------------------------------|

[Verso Baixo]

E|--------------------------------|
B|--------------------------------|
G|--------------------------------|
D|--------------------------------|
A|--------------------------------|
C|0-0-0-0-4-4-4-4-3-3-3-3-0-0-0-0-|

E|---------------------------------|
B|---------------------------------|
G|---------------------------------|
D|---------------------------------|
A|---------------------------------|
E|-0-0-0-0-4-4-4-4-3-3-3-3-5-5-5-5-|
                                                                             
E|-----------------------------------|
B|-----------------------------------|
G|-----------------------------------|
D|-----------------------------------|
A|-----------------------------------|
C|0-0-0-0-4-4-4-4-3-3-3-3-8-8-8-8--8-|

[Refrão - 2x]

 |PM----------------------------|
D|------------------------------|
A|------------------------------|
D|------------------------------|
A|------------------------------|
G|------------------------------|
C|0-0-0-0-0-0-0-0-0-0-0-0-0-0-0-|

E|------------------------------|
B|------------------------------|
G|------------------------------|
D|-3-5-6-5----------------------|
A|-3-5-6-5----------------------|
E|-3-5-6-5----------------------|
  
 |PM----------------------------|                                                                            
D|------------------------------|
A|------------------------------|
D|------------------------------|
A|------------------------------|
G|------------------------------|
C|0-0-0-0-0-0-0-0-0-0-0-0-0-0-0-|

E|------------------------------|
B|------------------------------|
G|-10-10-10-10------------------|
D|-x--x--x--x-----10-8-7--------|
A|-8--8--8--8-----10-8-7--------|
E|----------------10-8-7--------|

 |PM----------------------------|
D|------------------------------|
A|------------------------------|
D|------------------------------|
A|------------------------------|
G|------------------------------|
C|0-0-0-0-0-0-0-0-0-0-0-0-0-0-0-|

E|------------------------------|
B|------------------------------|
G|-10-10-10-10------------------|
D|-x--x--x--x-------------------|
A|-8--8--8--8-------------------|
E|------------------------------|

[Verso Baixo]

E|--------------------------------|
B|--------------------------------|
G|--------------------------------|
D|--------------------------------|
A|--------------------------------|
C|0-0-0-0-4-4-4-4-3-3-3-3-0-0-0-0-|

E|---------------------------------|
B|---------------------------------|
G|---------------------------------|
D|---------------------------------|
A|---------------------------------|
E|-0-0-0-0-4-4-4-4-3-3-3-3-5-5-5-5-|
                                                                             
E|-----------------------------------|
B|-----------------------------------|
G|-----------------------------------|
D|-----------------------------------|
A|-----------------------------------|
C|0-0-0-0-4-4-4-4-3-3-3-3-8-8-8-8--8-|

[Refrão - 2x]

 |PM----------------------------|
D|------------------------------|
A|------------------------------|
D|------------------------------|
A|------------------------------|
G|------------------------------|
C|0-0-0-0-0-0-0-0-0-0-0-0-0-0-0-|

E|------------------------------|
B|------------------------------|
G|------------------------------|
D|-3-5-6-5----------------------|
A|-3-5-6-5----------------------|
E|-3-5-6-5----------------------|
  
 |PM----------------------------|                                                                            
D|------------------------------|
A|------------------------------|
D|------------------------------|
A|------------------------------|
G|------------------------------|
C|0-0-0-0-0-0-0-0-0-0-0-0-0-0-0-|

E|------------------------------|
B|------------------------------|
G|-10-10-10-10------------------|
D|-x--x--x--x-----10-8-7--------|
A|-8--8--8--8-----10-8-7--------|
E|----------------10-8-7--------|

 |PM----------------------------|
D|------------------------------|
A|------------------------------|
D|------------------------------|
A|------------------------------|
G|------------------------------|
C|0-0-0-0-0-0-0-0-0-0-0-0-0-0-0-|

E|------------------------------|
B|------------------------------|
G|-10-10-10-10------------------|
D|-x--x--x--x-------------------|
A|-8--8--8--8-------------------|
E|------------------------------|

[Refrão - 2x]

 |PM----------------------------|
D|------------------------------|
A|------------------------------|
D|------------------------------|
A|------------------------------|
G|------------------------------|
C|4-4-4-4-4-4-4-4-4-4-4-4-4-4-4-|

E|------------------------------|
B|------------------------------|
G|------------------------------|
D|-7-9-10-9---------------------|
A|-7-9-10-9---------------------|
E|-7-9-10-9---------------------|

 |PM----------------------------|                                                                              
D|------------------------------|
A|------------------------------|
D|------------------------------|
A|------------------------------|
G|------------------------------|
C|4-4-4-4-4-4-4-4-4-4-4-4-4-4-4-|

E|-------------------------------|
B|-------------------------------|
G|-14-14-14-14-------------------|
D|-x--x--x--x----14-12-11--------|
A|-12-12-12-12---14-12-11--------|
E|---------------14-12-11--------|

 |PM----------------------------|
D|------------------------------|
A|------------------------------|
D|------------------------------|
A|------------------------------|
G|------------------------------|
C|4-4-4-4-4-4-4-4-4-4-4-4-4-4-4-|

E|------------------------------|
B|------------------------------|
G|-14-14-14-14------------------|
D|-x--x--x--x-------------------|
A|-12-12-12-12------------------|
E|------------------------------|

[Ponte]

E|------------------------------|
B|------------------------------|
G|------------------------------|
D|------------------------------|
A|------------------------------|
C|4b-8b-7b-3b-4b-8b-7b-11b------|

E|------------------------------|
B|------------------------------|
G|------------------------------|
D|------------------------------|
A|------------------------------|
E|-4b-8b-7b-3b-4b-8b-7b-11b-----|


[Refrão - 2x]

 |PM----------------------------|
D|------------------------------|
A|------------------------------|
D|------------------------------|
A|------------------------------|
G|------------------------------|
C|0-0-0-0-0-0-0-0-0-0-0-0-0-0-0-|

E|------------------------------|
B|------------------------------|
G|------------------------------|
D|-3-5-6-5----------------------|
A|-3-5-6-5----------------------|
E|-3-5-6-5----------------------|
 
 |PM----------------------------|                                                                            
D|------------------------------|
A|------------------------------|
D|------------------------------|
A|------------------------------|
G|------------------------------|
C|0-0-0-0-0-0-0-0-0-0-0-0-0-0-0-|

E|------------------------------|
B|------------------------------|
G|-10-10-10-10------------------|
D|-x--x--x--x-----10-8-7--------|
A|-8--8--8--8-----10-8-7--------|
E|----------------10-8-7--------|

 |PM----------------------------|
D|------------------------------|
A|------------------------------|
D|------------------------------|
A|------------------------------|
G|------------------------------|
C|0-0-0-0-0-0-0-0-0-0-0-0-0-0-0-|

E|------------------------------|
B|------------------------------|
G|-10-10-10-10------------------|
D|-x--x--x--x-------------------|
A|-8--8--8--8-------------------|
E|------------------------------|
00:00 / 00:00
Otros videos de esta canción
Repetir
Otros videos de esta canción
Composición de Rammstein
Colaboración y revisión:
  • Lucas Kappaun
537 vistas
    • ½ Tono
    • A
    • Bb
    • B
    • C
    • Db
    • D
    • Eb
    • E
    • F
    • F#
    • G
    • Ab
  • Agregar a la lista

    0 comentarios

    Ver todos los comentarios

    ¿Lograste tocar?

    0 Tocaron 2 Aún no

    ¡Graba un video tocando Radio y envíanoslo!

    00:00 / 00:00
    OK