Cifra Club

Rosenrot

Rammstein

Cifrado: Principal (guitarra y guitarra eléctrica)
tono: Ab
Intro:
E|-----------------------------------------------------------------------------------------
B|-----------------------------------------------------------------------------------------
G|-----------------------------------------------------------------------------------------
D|---10-10-10-10-10-10-10-10-6-6-6-6-6-6-6-6-10-10-10-10-10-10-10-10-6-6-6-6-6/13-13-13(5x|
A|---10-10-10-10-10-10-10-10-6-6-6-6-6-6-6-6-10-10-10-10-10-10-10-10-6-6-6-6-6/13-13-13(5x|
D|---10-10-10-10-10-10-10-10-6-6-6-6-6-6-6-6-10-10-10-10-10-10-10-10-6-6-6-6-6/13-13-13(5x|

Refrão:
E|----------------------------------------------------------------------------------------
B|----------------------------------------------------------------------------------------
G|----------------------------------------------------------------------------------------
D|--10-10-10-10-10-10-10-10-6-6-6-6-6-6-6-6-10-10-10-10-10-10-10-10-6-6-6-6-6/13-13-13----
A|--10-10-10-10-10-10-10-10-6-6-6-6-6-6-6-6-10-10-10-10-10-10-10-10-6-6-6-6-6/13-13-13----
D|--10-10-10-10-10-10-10-10-6-6-6-6-6-6-6-6-10-10-10-10-10-10-10-10-6-6-6-6-6/13-13-13----

Interludio:
E|---------------------------------------------------------------------------------------------
B|---------------------------------------------------------------------------------------------
G|---------------------------------------------------------------------------------------------
D|--10--8--10--10--8--10--10--8--11--8--11--11--8--11--11--8--10--8--10--10--8--10--10--8------
A|--10--8--10--10--8--10--10--8--11--8--11--11--8--11--11--8--10--8--10--10--8--10--10--8------
D|--10--8--10--10--8--10--10--8--11--8--11--11--8--11--11--8--10--8--10--10--8--10--10--8------

E|----------------------------------------------------------------------------------------------
B|----------------------------------------------------------------------------------------------
G|----------------------------------------------------------------------------------------------
D|-8--6--8--8--6--8--8--6--------------------------------------10-------------------------------
A|-8--6--8--8--6--8--8--6--------------------------------------10-------------------------------
D|-8--6--8--8--6--8--8--6-----------------------------------------------------------------------
Composición de Rammstein
Colaboración y revisión:
  • Pablo Dahmer
  • João Mata
  • victor conforto
1.827 vistas
    • ½ Tono
    • A
    • Bb
    • B
    • C
    • Db
    • D
    • Eb
    • E
    • F
    • F#
    • G
    • Ab
  • Agregar a la lista

    0 comentarios

    Ver todos los comentarios

    ¿Lograste tocar?

    14 Tocaron 0 Aún no

    ¡Graba un video tocando Rosenrot y envíanoslo!

    00:00 / 00:00
    Outros vídeos desta música
    Repetir Calidad Automático
    Outros vídeos desta música
    00:00 / 00:00
    Automático
    OK