Cifra Club

Sonne

Rammstein

Cifrado: Principal (guitarra y guitarra eléctrica)
tono: G
E|----------------------------------------------------------|
B|----------------------------------------------------------|
G|----------------------------------------------------------|
D|-00-6-0-6p5-0---00-6-0-6-0----00-6-0-6p5-0---00-6-0-6-5~~-|
A|-00-6-0-6p5-0---00-6-0-6-0----00-6-0-6p5-0---00-6-0-6-5~~-|
D|-00-6-0-6p5-0---00-6-0-6-0----00-6-0-6p5-0---00-6-0-6-5~~-|

E|--------------------|
B|--------------------|
G|--------------------|
D|-4-4-2-2-0-0-5-5----|
A|-4-4-2-2-0-0-5-5----|
D|-2-2-2-2-0-0-3-3----|

E|--------------------|
B|--------------------|
G|--------------------|
D|-2-2-4-4-5-5-4-4----|
A|-2-2-4-4-5-5-4-4----|
D|-2-2-2-2-5-5-4-4----|

Composición de Oliver Riedel / Paul Landers / Rammstein / Richard Z. Kruspe
Colaboración y revisión:
  • karonte ares
  • Gustavo Oliveira
  • Lucas Eron
3.679 vistas
  • Simplificar cifrado
    • ½ Tono
    • A
    • Bb
    • B
    • C
    • Db
    • D
    • Eb
    • E
    • F
    • F#
    • G
    • Ab
  • Agregar a la lista

    0 comentarios

    Ver todos los comentarios

    ¿Lograste tocar?

    32 Tocaron 0 Aún no

    ¡Graba un video tocando Sonne y envíanoslo!

    00:00 / 00:00
    Outros vídeos desta música
    Repetir Calidad Automático
    Outros vídeos desta música
    00:00 / 00:00
    Automático
    OK