Cifra Club

Oração da Familia

Raquel Mello

Tablatura: Principal (guitarra)
reproducciones 164
Tono: G
[Intro]  G  D9  Em7  C9

[Solo]

G            D9            Em7      C9         G

E|--3-3h5-5/7-5---2-2h3-3/5-3---3p2---------------|
B|----------------------------------3/5-3-3-------|
G|------------------------------------------0-2/4-|
D|------------------------------------------------|
A|------------------------------------------------|
E|------------------------------------------------|

G            D9            Em7      C9         G

E|--3-3h5-5/7-5---2-2h3-3/5-3---3p2---------------|
B|----------------------------------3/5-7-8-10-12-|
G|------------------------------------------------|
D|------------------------------------------------|
A|------------------------------------------------|
E|------------------------------------------------|

G                         Bm7
Pai nosso, que estás no céu,
Em7               Bm7
santifica minha casa.
C9                 Bm7
Estabelece o teu reino em nós
    Am7                 D
pra que façamos tua vontade.
G                     Bm7
Que a nossa mesa se farte de pão.
      Em7                 Bm7
Que a nossa fé cresça de grão em grão.
C9                  Bm7    Am7       D      G
Nos cubra de santidade, sabedoria e submissão.

Am7                 Em7
Não deixe que nos falte o pão.
C9                      G/B
Fortaleça a fé em nossos corações.
Am7                       Em7
Que os nossos filhos te sirvam com amor;
Am7                         B7
Benditos sejam para glória do Senhor.

Em7                Am7
O meu maior patrimônio
D                 G4  G
Precisa do teu auxí--lio.
Em7                Am7
Minha família te chama.
    B7                   Em7
Oh, vem, Senhor, morar comigo.
Em7               Am7
A tua graça nos faz prosperar.
B7              Em7  D     A/C#
Tua Palavra nos edi--fica--rá.
                         Am7
Pai nosso, que estás no céu,
D                 G
Santifica o nosso lar (abençoa o nosso lar)

Eb9                   Bb9
Eu e minha casa serviremos ao Senhor
         Dm7                    Gm
Todos os dias te daremos o melhor do nosso louvor
Eb9                   Bb9
Eu e minha casa serviremos ao Senhor
      D                           G  B
Fomos feitos para glória do Senhor

[Solo]  Em7  Am7  D/F#  G  C9  G/B  Am7  B7
Acordes para:
    Colaboración y revision:

    0 comentarios

      mostrar más comentarios

      ¿Conseguiste tocar?

      1tocaron0aún no

      ¡Graba un vídeo tocando Oração da Familia y envianoslo!

      00:00 / 00:00
      outros vídeos desta música
      repetirqualidadeAutomático
      Outro vídeos desta música
        00:00 / 00:00
        OK