Cifra Club

Bless The Broken Roads

Rascal Flatts

Cifrado: Principal (guitarra y guitarra eléctrica)
tono: C
Intro: 
e|--3-------3-----------0--0-1-1-0----------12-13-15-15-13-12----------12----13-13-12---------- 
b|----3-1-----3-1-0-1-3---3--------0-1------------------------12-13-15----------------12-12h13- 
g|--------------------------------------------------------------------------------------------- 
d|--------------------------------------------------------------------------------------------- 
a|--------------------------------------------------------------------------------------------- 
E|--------------------------------------------------------------------------------------------- 
 
(verse 1) 
C    Fmaj7       G    Am7   F     G    C 
I set out on a narrow way, many years ago, 
C     Fmaj7        G    Am7        F          G     C 
Hoping  I  would find true love, along the broken road, 
   Am7            G 
But I got lost a time or two,  
F       C             Dm         G 
wipe my brow and kept pushing through, 
C         Fmaj7      G   Am7    F        G          C 
I couldn't see how every sign, pointed straight to you, 


 
Refrão -------------
C      F          C                G        C 
Every long lost dream, led me to where you are, 
            F        Am7                   Dm    C   G 
Others who broke my heart, they were like North-ern stars, 
C           F     C                G    Am7 
Pointing me on my way, into your loving arms, 
            Dm   C   F 
This much I know is true, 
     C   Fmaj7       G    Am7        F        G          C - (play Intro) 
That God bless the broken road that lead me straight to you,
--------------------
 
 
 
 
 
(verse 2) 
I think about the years I spent, just passin through, 
I'd like to have the time I lost, and give it back to you, 
But you just smile and take my hand, 
You've been there you understand, 
It's all part of a grander plan, that is commin true, 
 

 
Refrão -------------
C      F          C                G        C 
Every long lost dream, led me to where you are, 
            F        Am7                   Dm    C   G 
Others who broke my heart, they were like North-ern stars, 
C           F     C                G    Am7 
Pointing me on my way, into your loving arms, 
            Dm   C   F 
This much I know is true, 
     C   Fmaj7       G    Am7        F        G          C  
That God bless the broken road that lead me straight to you,
--------------------
 
 
First solo 
e|--------------------------------------8-10-13-12----12h15p12---------------------------------| 
B|------------------------------------8------------13----------13------------------------------| 
G|-12~-10-9-----5--5--5----------5--5-------------------------------10-9--9-7-5--9/4/5---------| 
D|---------10---5--5--5--3-3-5-7-------------------------------------x-x--x-x-x--x-x-x---------| 
A|--------------3--3--3----------------------------------------------8-7--7-5-3--7/2/3---------| 
E|---------------------------------------------------------------------------------------------| 
 
(Ending) 
C             F      C              G    Am7 
Now I'm just rollin home, into my lovers arms, 
            Dm   C   F 
This much I know is true, 
     C   Fmaj7       G    Am7        F        G          C  
That God bless the broken road that lead me straight to you, 
 
Second "solo" 
e|----------------------------------| 
B|-12h13-13-------------------------| 
G|-----------9p7--------------------| 
D|---------------9h10--10p9p7h9h10--| 
A|----------------------------------| 
E|----------------------------------| 
     C   Fmaj7       G    Am7        F        G            C  
That God bless the broken road, that lead me straight, to you, 
 
 
 
Outro  
e|--3-------3-----------0--0-1-1-0----------12-13-15-15-13-12----------12----13-13-12---------- 
b----3-1-----3-1-0-1-3---3--------0-1------------------------12-13-15----------------12-12h13- 
g--------------------------------------------------------------------------------------------- 
d--------------------------------------------------------------------------------------------- 
a--------------------------------------------------------------------------------------------- 
E|---------------------------------------------------------------------------------------------
Composición de Jeff Hanna / Marcus Hummon
518 vistas
  • Simplificar cifrado
    • ½ Tono
    • A
    • Bb
    • B
    • C
    • Db
    • D
    • Eb
    • E
    • F
    • F#
    • G
    • Ab
  • Agregar a la lista

    0 comentarios

    Ver todos los comentarios

    ¿Lograste tocar?

    3 Tocaron 1 Aún no

    ¡Graba un video tocando Bless The Broken Roads y envíanoslo!

    00:00 / 00:00
    Outros vídeos desta música
    Repetir Calidad Automático
    Outros vídeos desta música
    00:00 / 00:00
    Automático
    OK