Cifra Club

Life Is A Highway Intro

Rascal Flatts

Cifrado: Principal (guitarra y guitarra eléctrica)
tono: F
this is right ive seen them play it live

e|-------------------------------------------|
b|-------------------------------------------|
g|-------------------------------------------|
D|-7-------------------3-----5-5--3-----5-5--|
A|-5--10-8-8--8-7-3-3--1--1--3-3--1--1--3-3--|
E|----8--6-6--6-5-1-1-----3----------3-------|

e|--------------------------------------------|
b|--------------------------------------------|
g|--------------------------------------------|
D|---------------------------3---5-5--3---5-5-|
A|-5-8-5----8-8--7-s-10--3-3-1-3-3-3--1-3-3-3-|
E|-------8--6-6--5-s-8---1-1---1--------1-----|

s
s means slide down and strum
Compositor não encontrado.
509 vistas
    • ½ Tono
    • A
    • Bb
    • B
    • C
    • Db
    • D
    • Eb
    • E
    • F
    • F#
    • G
    • Ab
  • Agregar a la lista

    0 comentarios

    Ver todos los comentarios

    ¿Lograste tocar?

    1 Tocaron 0 Aún no

    ¡Graba un video tocando Life Is A Highway Intro y envíanoslo!

    00:00 / 00:00
    Outros vídeos desta música
    Repetir Calidad Automático
    Outros vídeos desta música
    00:00 / 00:00
    Automático
    OK