Cifra Club

Me And Gang

Rascal Flatts

Cifrado: Principal (guitarra y guitarra eléctrica)
tono: E

Verse (lightly in back)
E|------------------------------||
B|------------------------------||
G|------------------------------||
D|-------3h4-------------5--3---||
A|------------3-----------------||
D|-0-0--------------0-----------||

Pre-Chorus
E|-2-2-2-2-2-2-2-2-||-------------------|-----------------|
B|-3-3-3-3-3-3-3-3-||-------------------|-----------------|
G|-4-4-4-4-4-4-4-4-||-------------------|-----------------|
D|-4-4-4-4-4-4-4-4-||-5-5-5-5-5-5-5-5-5-|-75-7-5-7-5--7-5-|
A|-2-2-2-2-2-2-2-2-||-5-5-5-5-5-5-5-5-5-|-75-7-5-7-5--7-5-|
D|-----------------||-5-5-5-5-5-5-5-5-5-|-75-7-5-7-5--7-5-|

Chorus
E|---------------------|---------------------|
B|---------------------|---------------------|
G|---------------------|---------------------|
D|-0-0-x-x---5-x-6-x-7-|-5-5-x-x-------------|
A|-0-0-x-x---3-x-4-x-5-|-5-5-x-x---5-x-4-x-3-|
D|-0-0-x-x-------------|-5-5-x-x---5-x-4-x-3-|

|----------------------
|1st Ending
E|---------------------|---------------------------|
B|---------------------|---------------------------|
G|---------------------|---------------------------|
D|-0-0-x-x---5-x-6-x-7-|-5-5-x-x-------------------|
A|-0-0-x-x---3-x-4-x-5-|-5-5-x-x---5p3p0-----------|
D|-0-0-x-x-------------|-5-5-x-x----------0-5-3~~--|

|----------------------
|2nd Ending | 2nd Chorus In Song Ending
E|-----------------|-----|-------------------|
B|-----------------|-----|-------------------|
G|-----------------|-----|-------------------|
D|-7-7-7-7-7-7-7-7-|-x-x-|-0-0--3-0-5-0-6--7-|
A|-7-7-7-7-7-7-7-7-|-x-x-|-0-0--3-0-5-0-6--7-|
D|-7-7-7-7-7-7-7-7-|-x-x-|-0-0--3-0-5-0-6--7-|
1st tab enjoy!
Composición de Jeffrey Steele / Jon Stone / Tony Mullins
18 vistas
    • ½ Tono
    • A
    • Bb
    • B
    • C
    • Db
    • D
    • Eb
    • E
    • F
    • F#
    • G
    • Ab
  • Agregar a la lista

    0 comentarios

    Ver todos los comentarios

    ¿Lograste tocar?

    0 Tocaron 0 Aún no

    ¡Graba un video tocando Me And Gang y envíanoslo!

    00:00 / 00:00
    Outros vídeos desta música
    Repetir Calidad Automático
    Outros vídeos desta música
    00:00 / 00:00
    Automático
    OK